  0
SECTION
  2
HEADER
  9
$ACADVER
  1
AC1018
  9
$ACADMAINTVER
 70
     0
  9
$DWGCODEPAGE
  3
ANSI_932
  9
$INSBASE
 10
0.0
 20
0.0
 30
0.0
  9
$EXTMIN
 10
-157.9713626545882
 20
86.22547142295761
 30
-0.0015258207003583
  9
$EXTMAX
 10
128.41366050702
 20
173.3866352344363
 30
0.0000000349246037
  9
$LIMMIN
 10
-156.0788286323074
 20
87.8598628201869
  9
$LIMMAX
 10
124.836800358913
 20
173.383975246222
  9
$ORTHOMODE
 70
     0
  9
$REGENMODE
 70
     1
  9
$FILLMODE
 70
     1
  9
$QTEXTMODE
 70
     0
  9
$MIRRTEXT
 70
     1
  9
$LTSCALE
 40
1.0
  9
$ATTMODE
 70
     1
  9
$TEXTSIZE
 40
3.5
  9
$TRACEWID
 40
0.5
  9
$TEXTSTYLE
  7
STANDARD
  9
$CLAYER
  8
0
  9
$CELTYPE
  6
ByLayer
  9
$CECOLOR
 62
   256
  9
$CELTSCALE
 40
1.0
  9
$DISPSILH
 70
     0
  9
$DIMSCALE
 40
1.0
  9
$DIMASZ
 40
0.18
  9
$DIMEXO
 40
0.0625
  9
$DIMDLI
 40
0.38
  9
$DIMRND
 40
0.0
  9
$DIMDLE
 40
0.0
  9
$DIMEXE
 40
0.18
  9
$DIMTP
 40
0.0
  9
$DIMTM
 40
0.0
  9
$DIMTXT
 40
0.18
  9
$DIMCEN
 40
0.09
  9
$DIMTSZ
 40
0.0
  9
$DIMTOL
 70
     0
  9
$DIMLIM
 70
     0
  9
$DIMTIH
 70
     1
  9
$DIMTOH
 70
     1
  9
$DIMSE1
 70
     0
  9
$DIMSE2
 70
     0
  9
$DIMTAD
 70
     0
  9
$DIMZIN
 70
     0
  9
$DIMBLK
  1

  9
$DIMASO
 70
     1
  9
$DIMSHO
 70
     1
  9
$DIMPOST
  1

  9
$DIMAPOST
  1

  9
$DIMALT
 70
     0
  9
$DIMALTD
 70
     2
  9
$DIMALTF
 40
25.4
  9
$DIMLFAC
 40
1.0
  9
$DIMTOFL
 70
     0
  9
$DIMTVP
 40
0.0
  9
$DIMTIX
 70
     0
  9
$DIMSOXD
 70
     0
  9
$DIMSAH
 70
     0
  9
$DIMBLK1
  1

  9
$DIMBLK2
  1

  9
$DIMSTYLE
  2
STANDARD
  9
$DIMCLRD
 70
     0
  9
$DIMCLRE
 70
     0
  9
$DIMCLRT
 70
     0
  9
$DIMTFAC
 40
1.0
  9
$DIMGAP
 40
0.09
  9
$DIMJUST
 70
     0
  9
$DIMSD1
 70
     0
  9
$DIMSD2
 70
     0
  9
$DIMTOLJ
 70
     1
  9
$DIMTZIN
 70
     0
  9
$DIMALTZ
 70
     0
  9
$DIMALTTZ
 70
     0
  9
$DIMUPT
 70
     0
  9
$DIMDEC
 70
     4
  9
$DIMTDEC
 70
     4
  9
$DIMALTU
 70
     2
  9
$DIMALTTD
 70
     2
  9
$DIMTXSTY
  7
STANDARD
  9
$DIMAUNIT
 70
     0
  9
$DIMADEC
 70
     0
  9
$DIMALTRND
 40
0.0
  9
$DIMAZIN
 70
     0
  9
$DIMDSEP
 70
    46
  9
$DIMATFIT
 70
     3
  9
$DIMFRAC
 70
     0
  9
$DIMLDRBLK
  1

  9
$DIMLUNIT
 70
     2
  9
$DIMLWD
 70
    -2
  9
$DIMLWE
 70
    -2
  9
$DIMTMOVE
 70
     0
  9
$LUNITS
 70
     2
  9
$LUPREC
 70
     4
  9
$SKETCHINC
 40
0.1
  9
$FILLETRAD
 40
2.0
  9
$AUNITS
 70
     0
  9
$AUPREC
 70
     0
  9
$MENU
  1
ACAD
  9
$ELEVATION
 40
0.0
  9
$PELEVATION
 40
0.0
  9
$THICKNESS
 40
0.0
  9
$LIMCHECK
 70
     0
  9
$CHAMFERA
 40
0.0
  9
$CHAMFERB
 40
0.0
  9
$CHAMFERC
 40
0.0
  9
$CHAMFERD
 40
0.0
  9
$SKPOLY
 70
     0
  9
$TDCREATE
 40
2452093.878508449
  9
$TDUCREATE
 40
2452094.045175115
  9
$TDUPDATE
 40
2453209.433849572
  9
$TDUUPDATE
 40
2453209.600516238
  9
$TDINDWG
 40
0.0015685764
  9
$TDUSRTIMER
 40
0.0015685764
  9
$USRTIMER
 70
     1
  9
$ANGBASE
 50
0.0
  9
$ANGDIR
 70
     0
  9
$PDMODE
 70
     0
  9
$PDSIZE
 40
0.0
  9
$PLINEWID
 40
0.0
  9
$SPLFRAME
 70
     0
  9
$SPLINETYPE
 70
     6
  9
$SPLINESEGS
 70
     8
  9
$HANDSEED
  5
1E4
  9
$SURFTAB1
 70
     6
  9
$SURFTAB2
 70
     6
  9
$SURFTYPE
 70
     6
  9
$SURFU
 70
     6
  9
$SURFV
 70
     6
  9
$UCSBASE
  2

  9
$UCSNAME
  2

  9
$UCSORG
 10
0.0
 20
0.0
 30
0.0
  9
$UCSXDIR
 10
1.0
 20
0.0
 30
0.0
  9
$UCSYDIR
 10
0.0
 20
1.0
 30
0.0
  9
$UCSORTHOREF
  2

  9
$UCSORTHOVIEW
 70
     0
  9
$UCSORGTOP
 10
0.0
 20
0.0
 30
0.0
  9
$UCSORGBOTTOM
 10
0.0
 20
0.0
 30
0.0
  9
$UCSORGLEFT
 10
0.0
 20
0.0
 30
0.0
  9
$UCSORGRIGHT
 10
0.0
 20
0.0
 30
0.0
  9
$UCSORGFRONT
 10
0.0
 20
0.0
 30
0.0
  9
$UCSORGBACK
 10
0.0
 20
0.0
 30
0.0
  9
$PUCSBASE
  2

  9
$PUCSNAME
  2

  9
$PUCSORG
 10
0.0
 20
0.0
 30
0.0
  9
$PUCSXDIR
 10
1.0
 20
0.0
 30
0.0
  9
$PUCSYDIR
 10
0.0
 20
1.0
 30
0.0
  9
$PUCSORTHOREF
  2

  9
$PUCSORTHOVIEW
 70
     0
  9
$PUCSORGTOP
 10
0.0
 20
0.0
 30
0.0
  9
$PUCSORGBOTTOM
 10
0.0
 20
0.0
 30
0.0
  9
$PUCSORGLEFT
 10
0.0
 20
0.0
 30
0.0
  9
$PUCSORGRIGHT
 10
0.0
 20
0.0
 30
0.0
  9
$PUCSORGFRONT
 10
0.0
 20
0.0
 30
0.0
  9
$PUCSORGBACK
 10
0.0
 20
0.0
 30
0.0
  9
$USERI1
 70
     0
  9
$USERI2
 70
     0
  9
$USERI3
 70
     0
  9
$USERI4
 70
     0
  9
$USERI5
 70
     0
  9
$USERR1
 40
0.0
  9
$USERR2
 40
0.0
  9
$USERR3
 40
0.0
  9
$USERR4
 40
0.0
  9
$USERR5
 40
0.0
  9
$WORLDVIEW
 70
     1
  9
$SHADEDGE
 70
     3
  9
$SHADEDIF
 70
    70
  9
$TILEMODE
 70
     1
  9
$MAXACTVP
 70
    64
  9
$PINSBASE
 10
0.0
 20
0.0
 30
0.0
  9
$PLIMCHECK
 70
     0
  9
$PEXTMIN
 10
1.000000000000000E+20
 20
1.000000000000000E+20
 30
1.000000000000000E+20
  9
$PEXTMAX
 10
-1.000000000000000E+20
 20
-1.000000000000000E+20
 30
-1.000000000000000E+20
  9
$PLIMMIN
 10
0.0
 20
0.0
  9
$PLIMMAX
 10
12.0
 20
9.0
  9
$UNITMODE
 70
     0
  9
$VISRETAIN
 70
     1
  9
$PLINEGEN
 70
     0
  9
$PSLTSCALE
 70
     1
  9
$TREEDEPTH
 70
  3020
  9
$CMLSTYLE
  2
Standard
  9
$CMLJUST
 70
     0
  9
$CMLSCALE
 40
1.0
  9
$PROXYGRAPHICS
 70
     1
  9
$MEASUREMENT
 70
     0
  9
$CELWEIGHT
370
    -1
  9
$ENDCAPS
280
     0
  9
$JOINSTYLE
280
     0
  9
$LWDISPLAY
290
     0
  9
$INSUNITS
 70
     0
  9
$HYPERLINKBASE
  1

  9
$STYLESHEET
  1

  9
$XEDIT
290
     1
  9
$CEPSNTYPE
380
     0
  9
$PSTYLEMODE
290
     1
  9
$FINGERPRINTGUID
  2
{315CC780-3023-460B-A1FD-8C6A8F7213F3}
  9
$VERSIONGUID
  2
{126A3238-F5E5-443F-87C2-818EC36AB2F1}
  9
$EXTNAMES
290
     1
  9
$PSVPSCALE
 40
0.0
  9
$OLESTARTUP
290
     0
  9
$SORTENTS
280
   127
  9
$INDEXCTL
280
     0
  9
$HIDETEXT
280
     0
  9
$XCLIPFRAME
290
     0
  9
$HALOGAP
280
     0
  9
$OBSCOLOR
 70
   257
  9
$OBSLTYPE
280
     0
  9
$INTERSECTIONDISPLAY
280
     0
  9
$INTERSECTIONCOLOR
 70
   257
  9
$DIMASSOC
280
     1
  9
$PROJECTNAME
  1

  0
ENDSEC
  0
SECTION
  2
CLASSES
  0
CLASS
  1
ACDBDICTIONARYWDFLT
  2
AcDbDictionaryWithDefault
  3
ObjectDBX Classes
 90
        0
 91
        1
280
     0
281
     0
  0
ENDSEC
  0
SECTION
  2
TABLES
  0
TABLE
  2
VPORT
  5
1B1
330
0
100
AcDbSymbolTable
 70
     2
  0
VPORT
  5
1E3
330
1B1
100
AcDbSymbolTableRecord
100
AcDbViewportTableRecord
  2
*Active
 70
     0
 10
0.0
 20
0.0
 11
1.0
 21
1.0
 12
-14.7788510737841
 22
129.8060533286969
 13
0.0
 23
0.0
 14
1.0
 24
1.0
 15
0.0
 25
0.0
 16
0.0
 26
0.0
 36
1.0
 17
0.0
 27
0.0
 37
0.0
 40
177.2154651488267
 41
1.624999999999999
 42
50.0
 43
0.0
 44
0.0
 50
0.0
 51
0.0
 71
     0
 72
   100
 73
     1
 74
     1
 75
     0
 76
     0
 77
     0
 78
     0
281
     0
 65
     1
110
0.0
120
0.0
130
0.0
111
1.0
121
0.0
131
0.0
112
0.0
122
1.0
132
0.0
 79
     0
146
0.0
  0
ENDTAB
  0
TABLE
  2
LTYPE
  5
1AE
330
0
100
AcDbSymbolTable
 70
     9
  0
LTYPE
  5
1BC
330
1AE
100
AcDbSymbolTableRecord
100
AcDbLinetypeTableRecord
  2
ByBlock
 70
     0
  3

 72
    65
 73
     0
 40
0.0
  0
LTYPE
  5
1BD
330
1AE
100
AcDbSymbolTableRecord
100
AcDbLinetypeTableRecord
  2
ByLayer
 70
     0
  3

 72
    65
 73
     0
 40
0.0
  0
LTYPE
  5
1BE
330
1AE
100
AcDbSymbolTableRecord
100
AcDbLinetypeTableRecord
  2
CONTINUOUS
 70
     0
  3
Solid line
 72
    65
 73
     0
 40
0.0
  0
LTYPE
  5
1CE
330
1AE
100
AcDbSymbolTableRecord
100
AcDbLinetypeTableRecord
  2
BORDER
 70
     0
  3
__ __ . __ __ .
 72
    65
 73
     6
 40
12.93690396670094
 49
3.69625827620027
 74
     0
 49
-1.848129138100135
 74
     0
 49
3.69625827620027
 74
     0
 49
-1.848129138100135
 74
     0
 49
0.0
 74
     0
 49
-1.848129138100135
 74
     0
  0
LTYPE
  5
1CF
330
1AE
100
AcDbSymbolTableRecord
100
AcDbLinetypeTableRecord
  2
CENTER
 70
     0
  3
____ _ ____ _
 72
    65
 73
     4
 40
14.78503310480108
 49
9.240645690500674
 74
     0
 49
-1.848129138100135
 74
     0
 49
1.848129138100135
 74
     0
 49
-1.848129138100135
 74
     0
  0
LTYPE
  5
1D0
330
1AE
100
AcDbSymbolTableRecord
100
AcDbLinetypeTableRecord
  2
DASHDOT
 70
     0
  3
__ . __ . __ .
 72
    65
 73
     4
 40
7.392516552400539
 49
3.69625827620027
 74
     0
 49
-1.848129138100135
 74
     0
 49
0.0
 74
     0
 49
-1.848129138100135
 74
     0
  0
LTYPE
  5
1D1
330
1AE
100
AcDbSymbolTableRecord
100
AcDbLinetypeTableRecord
  2
DASHED
 70
     0
  3
__ __ __ __ __
 72
    65
 73
     2
 40
5.544387414300403
 49
3.69625827620027
 74
     0
 49
-1.848129138100135
 74
     0
  0
LTYPE
  5
1D2
330
1AE
100
AcDbSymbolTableRecord
100
AcDbLinetypeTableRecord
  2
DIVIDE
 70
     0
  3
__ . . __ . . 
 72
    65
 73
     6
 40
9.240645690500674
 49
3.69625827620027
 74
     0
 49
-1.848129138100135
 74
     0
 49
0.0
 74
     0
 49
-1.848129138100135
 74
     0
 49
0.0
 74
     0
 49
-1.848129138100135
 74
     0
  0
LTYPE
  5
1D3
330
1AE
100
AcDbSymbolTableRecord
100
AcDbLinetypeTableRecord
  2
DOT
 70
     0
  3
..............
 72
    65
 73
     4
 40
3.69625827620027
 49
0.0
 74
     0
 49
-1.848129138100135
 74
     0
 49
0.0
 74
     0
 49
-1.848129138100135
 74
     0
  0
LTYPE
  5
1D4
330
1AE
100
AcDbSymbolTableRecord
100
AcDbLinetypeTableRecord
  2
HIDDEN
 70
     0
  3
_ _ _ _ _ _ _
 72
    65
 73
     2
 40
2.7721937071502
 49
1.848129138100135
 74
     0
 49
-0.9240645690500674
 74
     0
  0
LTYPE
  5
1D5
330
1AE
100
AcDbSymbolTableRecord
100
AcDbLinetypeTableRecord
  2
PHANTOM
 70
     0
  3
_____ _ _ _____ _ _ 
 72
    65
 73
     6
 40
18.48129138100135
 49
9.240645690500674
 74
     0
 49
-1.848129138100135
 74
     0
 49
1.848129138100135
 74
     0
 49
-1.848129138100135
 74
     0
 49
1.848129138100135
 74
     0
 49
-1.848129138100135
 74
     0
  0
ENDTAB
  0
TABLE
  2
LAYER
  5
1AB
330
0
100
AcDbSymbolTable
 70
     2
  0
LAYER
  5
1B9
330
1AB
100
AcDbSymbolTableRecord
100
AcDbLayerTableRecord
  2
0
 70
     0
 62
     7
  6
CONTINUOUS
370
    -3
390
1B8
  0
LAYER
  5
1D6
330
1AB
100
AcDbSymbolTableRecord
100
AcDbLayerTableRecord
  2
1
 70
     0
 62
     7
  6
CONTINUOUS
370
    -3
390
1B8
  0
ENDTAB
  0
TABLE
  2
STYLE
  5
1AC
330
0
100
AcDbSymbolTable
 70
     4
  0
STYLE
  5
1BA
330
1AC
100
AcDbSymbolTableRecord
100
AcDbTextStyleTableRecord
  2
STANDARD
 70
     0
 40
0.0
 41
1.0
 50
0.0
 71
     0
 42
3.5
  3
txt
  4

  0
STYLE
  5
1D7
330
1AC
100
AcDbSymbolTableRecord
100
AcDbTextStyleTableRecord
  2
SIMPLEX
 70
     0
 40
0.0
 41
1.0
 50
0.0
 71
     0
 42
3.5
  3
simplex
  4

  0
STYLE
  5
1D8
330
1AC
100
AcDbSymbolTableRecord
100
AcDbTextStyleTableRecord
  2
COMPLEX
 70
     0
 40
0.0
 41
1.0
 50
0.0
 71
     0
 42
3.5
  3
complex
  4

  0
STYLE
  5
1D9
330
1AC
100
AcDbSymbolTableRecord
100
AcDbTextStyleTableRecord
  2
ITALIC
 70
     0
 40
0.0
 41
1.0
 50
0.0
 71
     0
 42
3.5
  3
italic
  4

  0
ENDTAB
  0
TABLE
  2
VIEW
  5
1AF
330
0
100
AcDbSymbolTable
 70
     0
  0
ENDTAB
  0
TABLE
  2
UCS
  5
1B0
330
0
100
AcDbSymbolTable
 70
     0
  0
ENDTAB
  0
TABLE
  2
APPID
  5
1B2
330
0
100
AcDbSymbolTable
 70
     1
  0
APPID
  5
1BB
330
1B2
100
AcDbSymbolTableRecord
100
AcDbRegAppTableRecord
  2
ACAD
 70
     0
  0
ENDTAB
  0
TABLE
  2
DIMSTYLE
  5
1B3
330
0
100
AcDbSymbolTable
 70
     1
100
AcDbDimStyleTable
 71
     0
  0
DIMSTYLE
105
1DA
330
1B3
100
AcDbSymbolTableRecord
100
AcDbDimStyleTableRecord
  2
STANDARD
 70
     0
279
     2
340
1BA
  0
ENDTAB
  0
TABLE
  2
BLOCK_RECORD
  5
1AA
330
0
100
AcDbSymbolTable
 70
     2
  0
BLOCK_RECORD
  5
1C9
330
1AA
100
AcDbSymbolTableRecord
100
AcDbBlockTableRecord
  2
*Model_Space
340
1CC
  0
BLOCK_RECORD
  5
1C5
330
1AA
100
AcDbSymbolTableRecord
100
AcDbBlockTableRecord
  2
*Paper_Space
340
1C8
  0
BLOCK_RECORD
  5
1DF
330
1AA
100
AcDbSymbolTableRecord
100
AcDbBlockTableRecord
  2
$MODEL_SPACE
340
0
  0
BLOCK_RECORD
  5
1E1
330
1AA
100
AcDbSymbolTableRecord
100
AcDbBlockTableRecord
  2
$PAPER_SPACE
340
0
  0
ENDTAB
  0
ENDSEC
  0
SECTION
  2
BLOCKS
  0
BLOCK
  5
1CA
330
1C9
100
AcDbEntity
  8
0
100
AcDbBlockBegin
  2
*Model_Space
 70
     0
 10
0.0
 20
0.0
 30
0.0
  3
*Model_Space
  1

  0
ENDBLK
  5
1CB
330
1C9
100
AcDbEntity
  8
0
100
AcDbBlockEnd
  0
BLOCK
  5
1C6
330
1C5
100
AcDbEntity
 67
     1
  8
0
100
AcDbBlockBegin
  2
*Paper_Space
 70
     0
 10
0.0
 20
0.0
 30
0.0
  3
*Paper_Space
  1

  0
ENDBLK
  5
1C7
330
1C5
100
AcDbEntity
 67
     1
  8
0
100
AcDbBlockEnd
  0
BLOCK
  5
1E0
330
1DF
100
AcDbEntity
  8
0
100
AcDbBlockBegin
  2
$MODEL_SPACE
 70
     0
 10
0.0
 20
0.0
 30
0.0
  3
$MODEL_SPACE
  1

  0
ENDBLK
  5
20
330
1DF
100
AcDbEntity
  8
0
100
AcDbBlockEnd
  0
BLOCK
  5
1E2
330
1E1
100
AcDbEntity
  8
0
100
AcDbBlockBegin
  2
$PAPER_SPACE
 70
     0
 10
0.0
 20
0.0
 30
0.0
  3
$PAPER_SPACE
  1

  0
ENDBLK
  5
1C
330
1E1
100
AcDbEntity
  8
0
100
AcDbBlockEnd
  0
ENDSEC
  0
SECTION
  2
ENTITIES
  0
POINT
  5
33
330
1C9
100
AcDbEntity
  8
1
  6
DOT
 62
     7
100
AcDbPoint
 10
115.8609821402772
 20
95.16323543574785
 30
0.0
  0
POINT
  5
34
330
1C9
100
AcDbEntity
  8
1
  6
DOT
 62
     7
100
AcDbPoint
 10
98.51342181024193
 20
115.8549815360921
 30
0.0
  0
POINT
  5
35
330
1C9
100
AcDbEntity
  8
1
  6
DOT
 62
     7
100
AcDbPoint
 10
109.730307160246
 20
116.2116764981568
 30
0.0
  0
POINT
  5
36
330
1C9
100
AcDbEntity
  8
1
  6
DOT
 62
     7
100
AcDbPoint
 10
104.6432935575797
 20
94.80752129903729
 30
0.0
  0
POINT
  5
37
330
1C9
100
AcDbEntity
  8
1
  6
DOT
 62
     7
100
AcDbPoint
 10
104.1767578590474
 20
94.92926166652212
 30
0.0
  0
POINT
  5
38
330
1C9
100
AcDbEntity
  8
1
  6
DOT
 62
     7
100
AcDbPoint
 10
115.448401744334
 20
90.65234140683257
 30
0.0
  0
POINT
  5
39
330
1C9
100
AcDbEntity
  8
1
  6
DOT
 62
     7
100
AcDbPoint
 10
98.92519897348901
 20
120.3673842335414
 30
0.0
  0
POINT
  5
3A
330
1C9
100
AcDbEntity
  8
1
  6
DOT
 62
     7
100
AcDbPoint
 10
113.3552608998074
 20
89.66845838259486
 30
0.0
  0
POINT
  5
3B
330
1C9
100
AcDbEntity
  8
1
  6
DOT
 62
     7
100
AcDbPoint
 10
101.0183398180155
 20
121.351267257779
 30
0.0
  0
LINE
  5
3C
330
1C9
100
AcDbEntity
  8
1
 62
     7
100
AcDbLine
 10
20.11684011828533
 20
98.509862820187
 30
0.0
 11
20.11684011828533
 21
101.009862820187
 31
0.0
  0
LINE
  5
3D
330
1C9
100
AcDbEntity
  8
1
 62
     3
100
AcDbLine
 10
116.317151118766
 20
143.1394027876276
 30
0.0
 11
115.5508383584963
 21
140.2794846318125
 31
0.0
  0
LINE
  5
3E
330
1C9
100
AcDbEntity
  8
1
 62
     3
100
AcDbLine
 10
115.1741272862435
 20
140.3804240594024
 30
0.0
 11
115.9404400465134
 21
143.2403422152176
 31
0.0
  0
LINE
  5
3F
330
1C9
100
AcDbEntity
  8
1
 62
     3
100
AcDbLine
 10
116.6938621910188
 20
143.0384633600375
 30
0.0
 11
115.9275494307489
 21
140.1785452042226
 31
0.0
  0
LINE
  5
40
330
1C9
100
AcDbEntity
  8
1
 62
     7
100
AcDbLine
 10
118.216793639054
 20
139.5651440673294
 30
0.0
 11
114.6621865983104
 21
140.5175981533067
 31
0.0
  0
LINE
  5
41
330
1C9
100
AcDbEntity
  8
1
 62
     3
100
AcDbLine
 10
118.0944546391379
 20
142.663175744639
 30
0.0
 11
117.3281418788681
 21
139.8032575888237
 31
0.0
  0
LINE
  5
42
330
1C9
100
AcDbEntity
  8
1
 62
     3
100
AcDbLine
 10
116.9514308066154
 20
139.9041970164138
 30
0.0
 11
117.7177435668852
 21
142.7641151722289
 31
0.0
  0
LINE
  5
43
330
1C9
100
AcDbEntity
  8
1
 62
     3
100
AcDbLine
 10
118.4711657113907
 20
142.562236317049
 30
0.0
 11
117.7048529511209
 21
139.7023181612337
 31
0.0
  0
LINE
  5
44
330
1C9
100
AcDbEntity
  8
1
 62
     3
100
AcDbLine
 10
-146.9428666318908
 20
140.2794846318125
 30
0.0
 11
-147.7091793921605
 21
143.1394027876276
 31
0.0
  0
LINE
  5
45
330
1C9
100
AcDbEntity
  8
1
 62
     3
100
AcDbLine
 10
-147.3324683199079
 20
143.2403422152176
 30
0.0
 11
-146.5661555596381
 21
140.3804240594024
 31
0.0
  0
LINE
  5
46
330
1C9
100
AcDbEntity
  8
1
 62
     3
100
AcDbLine
 10
-147.3195777041435
 20
140.1785452042226
 30
0.0
 11
-148.0858904644134
 21
143.0384633600375
 31
0.0
  0
LINE
  5
47
330
1C9
100
AcDbEntity
  8
1
 62
     7
100
AcDbLine
 10
-146.0542148717049
 20
140.5175981533067
 30
0.0
 11
-149.6088219124486
 21
139.5651440673294
 31
0.0
  0
LINE
  5
48
330
1C9
100
AcDbEntity
  8
1
 62
     3
100
AcDbLine
 10
-148.7201701522628
 20
139.8032575888237
 30
0.0
 11
-149.4864829125326
 21
142.663175744639
 31
0.0
  0
LINE
  5
49
330
1C9
100
AcDbEntity
  8
1
 62
     3
100
AcDbLine
 10
-149.1097718402798
 20
142.764115172229
 30
0.0
 11
-148.34345908001
 21
139.9041970164138
 31
0.0
  0
LINE
  5
4A
330
1C9
100
AcDbEntity
  8
1
 62
     3
100
AcDbLine
 10
-149.0968812245155
 20
139.7023181612337
 30
0.0
 11
-149.8631939847853
 21
142.562236317049
 31
0.0
  0
LINE
  5
4B
330
1C9
100
AcDbEntity
  8
1
 62
     3
100
AcDbLine
 10
-63.50886839167989
 20
140.0406174302141
 30
0.0
 11
-63.50886839167989
 21
143.001422574852
 31
0.0
  0
LINE
  5
4C
330
1C9
100
AcDbEntity
  8
1
 62
     3
100
AcDbLine
 10
-63.11886839167989
 20
143.001422574852
 30
0.0
 11
-63.11886839167989
 21
140.0406174302141
 31
0.0
  0
LINE
  5
4D
330
1C9
100
AcDbEntity
  8
1
 62
     3
100
AcDbLine
 10
-63.89886839167989
 20
140.0406174302141
 30
0.0
 11
-63.89886839167989
 21
143.001422574852
 31
0.0
  0
LINE
  5
4E
330
1C9
100
AcDbEntity
  8
1
 62
     7
100
AcDbLine
 10
-64.42886839167988
 20
140.0406174302141
 30
0.0
 11
-62.58886839167988
 21
140.0406174302141
 31
0.0
  0
LINE
  5
4F
330
1C9
100
AcDbEntity
  8
1
 62
     3
100
AcDbLine
 10
14.61684011828532
 20
140.0406174302141
 30
0.0
 11
14.61684011828532
 21
143.001422574852
 31
0.0
  0
LINE
  5
50
330
1C9
100
AcDbEntity
  8
1
 62
     7
100
AcDbLine
 10
26.61684011828532
 20
89.209862820187
 30
0.0
 11
24.61684011828532
 21
89.209862820187
 31
0.0
  0
LINE
  5
51
330
1C9
100
AcDbEntity
  8
1
 62
     7
100
AcDbLine
 10
24.61684011828532
 20
89.209862820187
 30
0.0
 11
24.61684011828532
 21
98.509862820187
 31
0.0
  0
LINE
  5
52
330
1C9
100
AcDbEntity
  8
1
 62
     7
100
AcDbLine
 10
24.61684011828532
 20
98.509862820187
 30
0.0
 11
20.11684011828533
 21
98.509862820187
 31
0.0
  0
LINE
  5
53
330
1C9
100
AcDbEntity
  8
1
 62
     7
100
AcDbLine
 10
39.61684011828533
 20
98.00986282018699
 30
0.0
 11
39.61684011828533
 21
92.259862820187
 31
0.0
  0
LINE
  5
54
330
1C9
100
AcDbEntity
  8
1
 62
     7
100
AcDbLine
 10
39.61684011828533
 20
113.0098628201869
 30
0.0
 11
39.61684011828533
 21
98.00986282018699
 31
0.0
  0
LINE
  5
55
330
1C9
100
AcDbEntity
  8
1
 62
     7
100
AcDbLine
 10
37.61684011828533
 20
108.5098628201869
 30
0.0
 11
37.61684011828533
 21
102.5098628201869
 31
0.0
  0
LINE
  5
56
330
1C9
100
AcDbEntity
  8
1
 62
     7
100
AcDbLine
 10
37.61684011828533
 20
102.5098628201869
 30
0.0
 11
37.61684011828533
 21
98.00986282018699
 31
0.0
  0
LINE
  5
57
330
1C9
100
AcDbEntity
  8
1
 62
     7
100
AcDbLine
 10
18.61684011828532
 20
102.5098628201869
 30
0.0
 11
18.61684011828532
 21
99.20986282018702
 31
0.0
  0
LINE
  5
58
330
1C9
100
AcDbEntity
  8
1
 62
     7
100
AcDbLine
 10
18.61684011828532
 20
108.5098628201869
 30
0.0
 11
18.61684011828532
 21
102.5098628201869
 31
0.0
  0
LINE
  5
59
330
1C9
100
AcDbEntity
  8
1
 62
     7
100
AcDbLine
 10
13.61684011828533
 20
101.9698628201869
 30
0.0
 11
13.61684011828533
 21
98.549862820187
 31
0.0
  0
LINE
  5
5A
330
1C9
100
AcDbEntity
  8
1
 62
     7
100
AcDbLine
 10
13.61684011828533
 20
109.049862820187
 30
0.0
 11
13.61684011828533
 21
101.9698628201869
 31
0.0
  0
LINE
  5
5B
330
1C9
100
AcDbEntity
  8
1
 62
     7
100
AcDbLine
 10
8.616840118285326
 20
101.9698628201869
 30
0.0
 11
8.616840118285331
 21
89.00986282018701
 31
0.0
  0
LINE
  5
5C
330
1C9
100
AcDbEntity
  8
1
 62
     7
100
AcDbLine
 10
8.616840118285326
 20
109.049862820187
 30
0.0
 11
8.616840118285326
 21
101.9698628201869
 31
0.0
  0
LINE
  5
5D
330
1C9
100
AcDbEntity
  8
1
 62
     7
100
AcDbLine
 10
7.116840118285316
 20
99.509862820187
 30
0.0
 11
7.116840118285316
 21
89.50986282018702
 31
0.0
  0
LINE
  5
5E
330
1C9
100
AcDbEntity
  8
1
 62
     7
100
AcDbLine
 10
35.336455360556
 20
98.45986282018706
 30
0.0
 11
35.336455360556
 21
96.05986282018704
 31
0.0
  0
LINE
  5
5F
330
1C9
100
AcDbEntity
  8
1
 62
     7
100
AcDbLine
 10
31.37771997666083
 20
94.509862820187
 30
0.0
 11
31.81684011828531
 21
94.509862820187
 31
0.0
  0
LINE
  5
60
330
1C9
100
AcDbEntity
  8
1
 62
     7
100
AcDbLine
 10
31.37771997666083
 20
100.009862820187
 30
0.0
 11
31.81684011828531
 21
100.009862820187
 31
0.0
  0
LINE
  5
61
330
1C9
100
AcDbEntity
  8
1
 62
     7
100
AcDbLine
 10
36.7096604413129
 20
97.259862820187
 30
0.0
 11
36.01684011828536
 21
96.05986282018704
 31
0.0
  0
LINE
  5
62
330
1C9
100
AcDbEntity
  8
1
 62
     7
100
AcDbLine
 10
36.01684011828536
 20
98.45986282018706
 30
0.0
 11
36.7096604413129
 21
97.259862820187
 31
0.0
  0
LINE
  5
63
330
1C9
100
AcDbEntity
  8
1
 62
     7
100
AcDbLine
 10
34.8168401182853
 20
96.05986282018704
 30
0.0
 11
32.11684011828533
 21
96.05986282018704
 31
0.0
  0
LINE
  5
64
330
1C9
100
AcDbEntity
  8
1
 62
     7
100
AcDbLine
 10
34.8168401182853
 20
96.05986282018704
 30
0.0
 11
34.8168401182853
 21
95.759862820187
 31
0.0
  0
LINE
  5
65
330
1C9
100
AcDbEntity
  8
1
 62
     7
100
AcDbLine
 10
36.01684011828536
 20
96.05986282018704
 30
0.0
 11
34.8168401182853
 21
96.05986282018704
 31
0.0
  0
LINE
  5
66
330
1C9
100
AcDbEntity
  8
1
 62
     7
100
AcDbLine
 10
36.01684011828536
 20
98.45986282018706
 30
0.0
 11
36.01684011828536
 21
96.05986282018704
 31
0.0
  0
LINE
  5
67
330
1C9
100
AcDbEntity
  8
1
 62
     7
100
AcDbLine
 10
34.8168401182853
 20
98.45986282018706
 30
0.0
 11
36.01684011828536
 21
98.45986282018706
 31
0.0
  0
LINE
  5
68
330
1C9
100
AcDbEntity
  8
1
 62
     7
100
AcDbLine
 10
34.8168401182853
 20
98.45986282018706
 30
0.0
 11
34.8168401182853
 21
96.05986282018704
 31
0.0
  0
LINE
  5
69
330
1C9
100
AcDbEntity
  8
1
 62
     7
100
AcDbLine
 10
32.11684011828533
 20
98.45986282018706
 30
0.0
 11
34.8168401182853
 21
98.45986282018706
 31
0.0
  0
LINE
  5
6A
330
1C9
100
AcDbEntity
  8
1
 62
     3
100
AcDbLine
 10
34.8168401182853
 20
95.759862820187
 30
0.0
 11
32.11684011828533
 21
95.759862820187
 31
0.0
  0
LINE
  5
6B
330
1C9
100
AcDbEntity
  8
1
 62
     3
100
AcDbLine
 10
35.336455360556
 20
96.05986282018704
 30
0.0
 11
34.8168401182853
 21
95.759862820187
 31
0.0
  0
LINE
  5
6C
330
1C9
100
AcDbEntity
  8
1
 62
     7
100
AcDbLine
 10
34.8168401182853
 20
98.759862820187
 30
0.0
 11
34.8168401182853
 21
98.45986282018706
 31
0.0
  0
LINE
  5
6D
330
1C9
100
AcDbEntity
  8
1
 62
     3
100
AcDbLine
 10
34.8168401182853
 20
98.759862820187
 30
0.0
 11
35.336455360556
 21
98.45986282018706
 31
0.0
  0
LINE
  5
6E
330
1C9
100
AcDbEntity
  8
1
 62
     3
100
AcDbLine
 10
32.11684011828533
 20
98.759862820187
 30
0.0
 11
34.8168401182853
 21
98.759862820187
 31
0.0
  0
LINE
  5
6F
330
1C9
100
AcDbEntity
  8
1
 62
     7
100
AcDbLine
 10
29.66684011828533
 20
93.95986282018702
 30
0.0
 11
32.11684011828533
 21
93.95986282018702
 31
0.0
  0
LINE
  5
70
330
1C9
100
AcDbEntity
  8
1
 62
     7
100
AcDbLine
 10
-145.7235612472788
 20
122.5151096828634
 30
0.0
 11
-145.4765205588704
 21
121.5931412821869
 31
0.0
  0
LINE
  5
71
330
1C9
100
AcDbEntity
  8
1
 62
     7
100
AcDbLine
 10
-145.7235612472788
 20
122.5151096828634
 30
0.0
 11
-142.5788286323076
 21
123.3577382474567
 31
0.0
  0
LINE
  5
72
330
1C9
100
AcDbEntity
  8
1
 62
     7
100
AcDbLine
 10
-146.0542148717049
 20
140.5175981533067
 30
0.0
 11
-142.5788286323074
 21
127.5472801319497
 31
0.0
  0
LINE
  5
73
330
1C9
100
AcDbEntity
  8
1
 62
     7
100
AcDbLine
 10
-143.3087466815561
 20
123.1621572956197
 30
0.0
 11
-147.8315183920768
 21
140.0413711103182
 31
0.0
  0
LINE
  5
74
330
1C9
100
AcDbEntity
  8
1
 62
     7
100
AcDbLine
 10
-149.6088219124486
 20
139.5651440673294
 30
0.0
 11
-145.086050201928
 21
122.6859302526311
 31
0.0
  0
LINE
  5
75
330
1C9
100
AcDbEntity
  8
1
 62
     7
100
AcDbLine
 10
-142.5788286323076
 20
122.480425568664
 30
0.0
 11
-142.5788286323074
 21
139.509862820187
 31
0.0
  0
LINE
  5
76
330
1C9
100
AcDbEntity
  8
1
 62
     7
100
AcDbLine
 10
-134.5788286323074
 20
122.480425568664
 30
0.0
 11
-134.5788286323074
 21
139.509862820187
 31
0.0
  0
LINE
  5
77
330
1C9
100
AcDbEntity
  8
1
  6
DASHDOT
 62
     3
100
AcDbLine
 10
-137.2490274137955
 20
105.5098628201869
 30
0.0
 11
-139.9086298508194
 21
105.5098628201869
 31
0.0
  0
LINE
  5
78
330
1C9
100
AcDbEntity
  8
1
  6
DASHDOT
 62
     3
100
AcDbLine
 10
-138.5788286323074
 20
106.839664038699
 30
0.0
 11
-138.5788286323074
 21
104.1800616016749
 31
0.0
  0
LINE
  5
79
330
1C9
100
AcDbEntity
  8
1
 62
     7
100
AcDbLine
 10
-135.5788286323074
 20
140.5098628201869
 30
0.0
 11
-141.5788286323074
 21
140.5098628201869
 31
0.0
  0
LINE
  5
7A
330
1C9
100
AcDbEntity
  8
1
 62
     7
100
AcDbLine
 10
-140.1788286323075
 20
131.859862820187
 30
0.0
 11
-140.1788286323075
 21
136.1598628201869
 31
0.0
  0
LINE
  5
7B
330
1C9
100
AcDbEntity
  8
1
 62
     7
100
AcDbLine
 10
-136.9788286323074
 20
131.859862820187
 30
0.0
 11
-136.9788286323074
 21
136.1598628201869
 31
0.0
  0
LINE
  5
7C
330
1C9
100
AcDbEntity
  8
1
 62
     7
100
AcDbLine
 10
-52.00886839167988
 20
121.8098628201869
 30
0.0
 11
-51.50886839167989
 21
121.8098628201869
 31
0.0
  0
LINE
  5
7D
330
1C9
100
AcDbEntity
  8
1
 62
     7
100
AcDbLine
 10
-48.5088683916799
 20
110.5098628201869
 30
0.0
 11
-48.70886839167988
 21
110.5098628201869
 31
0.0
  0
LINE
  5
7E
330
1C9
100
AcDbEntity
  8
1
  6
DASHDOT
 62
     3
100
AcDbLine
 10
7.116840118285316
 20
105.5098628201869
 30
0.0
 11
4.116840118285315
 21
105.5098628201869
 31
0.0
  0
LINE
  5
7F
330
1C9
100
AcDbEntity
  8
1
  6
DASHDOT
 62
     3
100
AcDbLine
 10
39.61684011828533
 20
105.5098628201869
 30
0.0
 11
42.61684011828532
 21
105.5098628201869
 31
0.0
  0
LINE
  5
80
330
1C9
100
AcDbEntity
  8
1
 62
     7
100
AcDbLine
 10
18.61684011828532
 20
102.5098628201869
 30
0.0
 11
37.61684011828533
 21
102.5098628201869
 31
0.0
  0
LINE
  5
81
330
1C9
100
AcDbEntity
  8
1
 62
     7
100
AcDbLine
 10
7.116840118285316
 20
89.50986282018702
 30
0.0
 11
8.616840118285317
 21
89.50986282018702
 31
0.0
  0
LINE
  5
82
330
1C9
100
AcDbEntity
  8
1
 62
     7
100
AcDbLine
 10
32.11684011828533
 20
87.85986282018697
 30
0.0
 11
29.61684011828532
 21
87.85986282018697
 31
0.0
  0
LINE
  5
83
330
1C9
100
AcDbEntity
  8
1
 62
     7
100
AcDbLine
 10
32.11684011828533
 20
87.85986282018697
 30
0.0
 11
32.11684011828533
 21
100.5098628201869
 31
0.0
  0
LINE
  5
84
330
1C9
100
AcDbEntity
  8
1
 62
     7
100
AcDbLine
 10
32.31684011828532
 20
88.50986282018698
 30
0.0
 11
32.11684011828533
 21
88.50986282018698
 31
0.0
  0
LINE
  5
85
330
1C9
100
AcDbEntity
  8
1
 62
     7
100
AcDbLine
 10
32.31684011828532
 20
88.50986282018698
 30
0.0
 11
32.31684011828532
 21
95.759862820187
 31
0.0
  0
LINE
  5
86
330
1C9
100
AcDbEntity
  8
1
 62
     7
100
AcDbLine
 10
37.61684011828533
 20
98.00986282018699
 30
0.0
 11
39.61684011828533
 21
98.00986282018699
 31
0.0
  0
LINE
  5
87
330
1C9
100
AcDbEntity
  8
1
 62
     7
100
AcDbLine
 10
37.61684011828533
 20
100.009862820187
 30
0.0
 11
32.31684011828532
 21
100.009862820187
 31
0.0
  0
LINE
  5
88
330
1C9
100
AcDbEntity
  8
1
 62
     7
100
AcDbLine
 10
33.81684011828532
 20
92.259862820187
 30
0.0
 11
39.61684011828533
 21
92.259862820187
 31
0.0
  0
LINE
  5
89
330
1C9
100
AcDbEntity
  8
1
 62
     7
100
AcDbLine
 10
32.31684011828532
 20
94.85793903154029
 30
0.0
 11
33.81684011828532
 21
92.259862820187
 31
0.0
  0
LINE
  5
8A
330
1C9
100
AcDbEntity
  8
1
 62
     7
100
AcDbLine
 10
32.31684011828532
 20
100.5098628201869
 30
0.0
 11
32.31684011828532
 21
98.759862820187
 31
0.0
  0
LINE
  5
8B
330
1C9
100
AcDbEntity
  8
1
 62
     7
100
AcDbLine
 10
29.61684011828532
 20
87.85986282018697
 30
0.0
 11
29.61684011828532
 21
100.5098628201869
 31
0.0
  0
LINE
  5
8C
330
1C9
100
AcDbEntity
  8
1
 62
     7
100
AcDbLine
 10
29.41684011828532
 20
88.00986282018701
 30
0.0
 11
27.30966044131288
 21
88.00986282018701
 31
0.0
  0
LINE
  5
8D
330
1C9
100
AcDbEntity
  8
1
 62
     7
100
AcDbLine
 10
27.30966044131288
 20
88.00986282018701
 30
0.0
 11
26.61684011828532
 21
89.209862820187
 31
0.0
  0
LINE
  5
8E
330
1C9
100
AcDbEntity
  8
1
 62
     7
100
AcDbLine
 10
20.11684011828533
 20
101.009862820187
 30
0.0
 11
18.61684011828532
 21
101.009862820187
 31
0.0
  0
LINE
  5
8F
330
1C9
100
AcDbEntity
  8
1
 62
     7
100
AcDbLine
 10
28.41684011828532
 20
100.009862820187
 30
0.0
 11
28.41684011828532
 21
95.25986282018699
 31
0.0
  0
LINE
  5
90
330
1C9
100
AcDbEntity
  8
1
 62
     7
100
AcDbLine
 10
28.91684011828532
 20
100.5098628201869
 30
0.0
 11
37.61684011828533
 21
100.5098628201869
 31
0.0
  0
LINE
  5
91
330
1C9
100
AcDbEntity
  8
1
 62
     7
100
AcDbLine
 10
29.41684011828532
 20
94.25986282018699
 30
0.0
 11
28.41684011828532
 21
95.25986282018699
 31
0.0
  0
LINE
  5
92
330
1C9
100
AcDbEntity
  8
1
 62
     7
100
AcDbLine
 10
29.41684011828532
 20
100.5098628201869
 30
0.0
 11
29.41684011828532
 21
88.00986282018701
 31
0.0
  0
LINE
  5
93
330
1C9
100
AcDbEntity
  8
1
 62
     7
100
AcDbLine
 10
23.61684011828532
 20
98.00986282018699
 30
0.0
 11
19.61684011828532
 21
98.00986282018699
 31
0.0
  0
LINE
  5
94
330
1C9
100
AcDbEntity
  8
1
 62
     7
100
AcDbLine
 10
19.61684011828532
 20
99.20986282018702
 30
0.0
 11
19.61684011828532
 21
97.65986282018701
 31
0.0
  0
LINE
  5
95
330
1C9
100
AcDbEntity
  8
1
 62
     7
100
AcDbLine
 10
19.61684011828532
 20
97.65986282018701
 30
0.0
 11
18.46684011828532
 21
97.65986282018701
 31
0.0
  0
LINE
  5
96
330
1C9
100
AcDbEntity
  8
1
 62
     7
100
AcDbLine
 10
23.61684011828532
 20
98.509862820187
 30
0.0
 11
23.61684011828532
 21
88.70986282018701
 31
0.0
  0
LINE
  5
97
330
1C9
100
AcDbEntity
  8
1
 62
     7
100
AcDbLine
 10
26.11684011828533
 20
88.70986282018701
 30
0.0
 11
23.61684011828532
 21
88.70986282018701
 31
0.0
  0
LINE
  5
98
330
1C9
100
AcDbEntity
  8
1
 62
     7
100
AcDbLine
 10
26.11684011828533
 20
88.00986282018701
 30
0.0
 11
9.616840118285331
 21
88.00986282018701
 31
0.0
  0
LINE
  5
99
330
1C9
100
AcDbEntity
  8
1
 62
     7
100
AcDbLine
 10
9.616840118285331
 20
88.00986282018701
 30
0.0
 11
8.616840118285331
 21
89.00986282018701
 31
0.0
  0
LINE
  5
9A
330
1C9
100
AcDbEntity
  8
1
 62
     7
100
AcDbLine
 10
9.482865522069774
 20
98.00986282018699
 30
0.0
 11
8.616840118285331
 21
96.50986282018699
 31
0.0
  0
LINE
  5
9B
330
1C9
100
AcDbEntity
  8
1
 62
     7
100
AcDbLine
 10
26.11684011828533
 20
89.209862820187
 30
0.0
 11
26.11684011828533
 21
88.00986282018701
 31
0.0
  0
LINE
  5
9C
330
1C9
100
AcDbEntity
  8
1
 62
     7
100
AcDbLine
 10
8.616840118285317
 20
99.509862820187
 30
0.0
 11
7.116840118285316
 21
99.509862820187
 31
0.0
  0
LINE
  5
9D
330
1C9
100
AcDbEntity
  8
1
 62
     7
100
AcDbLine
 10
13.07684011828532
 20
102.5098628201869
 30
0.0
 11
9.156840118285325
 21
102.5098628201869
 31
0.0
  0
LINE
  5
9E
330
1C9
100
AcDbEntity
  8
1
 62
     7
100
AcDbLine
 10
18.46684011828532
 20
98.00986282018699
 30
0.0
 11
9.156840118285325
 21
98.00986282018699
 31
0.0
  0
LINE
  5
9F
330
1C9
100
AcDbEntity
  8
1
 62
     7
100
AcDbLine
 10
15.44184011828533
 20
99.09072852507799
 30
0.0
 11
11.79184011828532
 21
99.09072852507799
 31
0.0
  0
LINE
  5
A0
330
1C9
100
AcDbEntity
  8
1
 62
     7
100
AcDbLine
 10
8.616840118285326
 20
99.09072852507799
 30
0.0
 11
10.44184011828533
 21
99.09072852507799
 31
0.0
  0
LINE
  5
A1
330
1C9
100
AcDbEntity
  8
1
 62
     7
100
AcDbLine
 10
8.616840118285326
 20
101.428997115296
 30
0.0
 11
10.44184011828533
 21
101.428997115296
 31
0.0
  0
LINE
  5
A2
330
1C9
100
AcDbEntity
  8
1
 62
     7
100
AcDbLine
 10
15.44184011828533
 20
101.428997115296
 30
0.0
 11
11.79184011828532
 21
101.428997115296
 31
0.0
  0
LINE
  5
A3
330
1C9
100
AcDbEntity
  8
1
 62
     7
100
AcDbLine
 10
18.07684011828532
 20
102.5098628201869
 30
0.0
 11
14.15684011828532
 21
102.5098628201869
 31
0.0
  0
LINE
  5
A4
330
1C9
100
AcDbEntity
  8
1
 62
     7
100
AcDbLine
 10
18.61684011828532
 20
99.09072852507799
 30
0.0
 11
16.79184011828532
 21
99.09072852507799
 31
0.0
  0
LINE
  5
A5
330
1C9
100
AcDbEntity
  8
1
 62
     7
100
AcDbLine
 10
18.61684011828532
 20
101.428997115296
 30
0.0
 11
16.79184011828532
 21
101.428997115296
 31
0.0
  0
LINE
  5
A6
330
1C9
100
AcDbEntity
  8
1
 62
     7
100
AcDbLine
 10
18.46684011828532
 20
98.17800547462557
 30
0.0
 11
18.46684011828532
 21
97.65986282018701
 31
0.0
  0
LINE
  5
A7
330
1C9
100
AcDbEntity
  8
1
 62
     7
100
AcDbLine
 10
19.61684011828532
 20
99.20986282018702
 30
0.0
 11
18.61684011828532
 21
99.20986282018702
 31
0.0
  0
LINE
  5
A8
330
1C9
100
AcDbEntity
  8
1
 62
     7
100
AcDbLine
 10
18.61684011828532
 20
97.65986282018701
 30
0.0
 11
18.61684011828532
 21
99.20986282018702
 31
0.0
  0
LINE
  5
A9
330
1C9
100
AcDbEntity
  8
1
 62
     7
100
AcDbLine
 10
19.61684011828532
 20
101.009862820187
 30
0.0
 11
19.61684011828532
 21
99.20986282018702
 31
0.0
  0
LINE
  5
AA
330
1C9
100
AcDbEntity
  8
1
 62
     7
100
AcDbLine
 10
7.116840118285316
 20
99.509862820187
 30
0.0
 11
7.116840118285316
 21
111.509862820187
 31
0.0
  0
LINE
  5
AB
330
1C9
100
AcDbEntity
  8
1
 62
     7
100
AcDbLine
 10
8.616840118285317
 20
140.5098628201869
 30
0.0
 11
8.616840118285326
 21
109.049862820187
 31
0.0
  0
LINE
  5
AC
330
1C9
100
AcDbEntity
  8
1
  6
DASHDOT
 62
     3
100
AcDbLine
 10
-71.00886839167991
 20
105.5098628201869
 30
0.0
 11
-74.00886839167991
 21
105.5098628201869
 31
0.0
  0
LINE
  5
AD
330
1C9
100
AcDbEntity
  8
1
  6
DASHDOT
 62
     3
100
AcDbLine
 10
-38.50886839167989
 20
105.5098628201869
 30
0.0
 11
-35.50886839167989
 21
105.5098628201869
 31
0.0
  0
LINE
  5
AE
330
1C9
100
AcDbEntity
  8
1
 62
     7
100
AcDbLine
 10
-64.42886839167996
 20
123.784862820187
 30
0.0
 11
-64.42886839167988
 21
140.0406174302141
 31
0.0
  0
LINE
  5
AF
330
1C9
100
AcDbEntity
  8
1
 62
     7
100
AcDbLine
 10
-38.50886839167989
 20
105.5098628201869
 30
0.0
 11
-38.50886839167989
 21
92.259862820187
 31
0.0
  0
LINE
  5
B0
330
1C9
100
AcDbEntity
  8
1
 62
     7
100
AcDbLine
 10
-61.0088683916799
 20
123.0098628201869
 30
0.0
 11
-61.0088683916799
 21
123.784862820187
 31
0.0
  0
LINE
  5
B1
330
1C9
100
AcDbEntity
  8
1
 62
     7
100
AcDbLine
 10
-45.80886839167988
 20
96.259862820187
 30
0.0
 11
-45.30886839167989
 21
96.259862820187
 31
0.0
  0
LINE
  5
B2
330
1C9
100
AcDbEntity
  8
1
 62
     7
100
AcDbLine
 10
-45.30886839167989
 20
100.2598628201869
 30
0.0
 11
-45.30886839167989
 21
96.259862820187
 31
0.0
  0
LINE
  5
B3
330
1C9
100
AcDbEntity
  8
1
 62
     7
100
AcDbLine
 10
-45.80886839167988
 20
100.2598628201869
 30
0.0
 11
-45.30886839167989
 21
100.2598628201869
 31
0.0
  0
LINE
  5
B4
330
1C9
100
AcDbEntity
  8
1
 62
     7
100
AcDbLine
 10
-48.5088683916799
 20
123.159862820187
 30
0.0
 11
-46.0088683916799
 21
123.159862820187
 31
0.0
  0
LINE
  5
B5
330
1C9
100
AcDbEntity
  8
1
 62
     7
100
AcDbLine
 10
-46.0088683916799
 20
87.85986282018702
 30
0.0
 11
-48.5088683916799
 21
87.85986282018702
 31
0.0
  0
LINE
  5
B6
330
1C9
100
AcDbEntity
  8
1
 62
     7
100
AcDbLine
 10
-46.0088683916799
 20
122.5098628201869
 30
0.0
 11
-45.80886839167988
 21
122.5098628201869
 31
0.0
  0
LINE
  5
B7
330
1C9
100
AcDbEntity
  8
1
 62
     7
100
AcDbLine
 10
-45.80886839167988
 20
110.5098628201869
 30
0.0
 11
-45.80886839167988
 21
122.5098628201869
 31
0.0
  0
LINE
  5
B8
330
1C9
100
AcDbEntity
  8
1
 62
     7
100
AcDbLine
 10
-46.0088683916799
 20
88.50986282018698
 30
0.0
 11
-45.80886839167988
 21
88.50986282018698
 31
0.0
  0
LINE
  5
B9
330
1C9
100
AcDbEntity
  8
1
 62
     7
100
AcDbLine
 10
-45.80886839167988
 20
122.0098628201869
 30
0.0
 11
-45.30886839167989
 21
122.0098628201869
 31
0.0
  0
LINE
  5
BA
330
1C9
100
AcDbEntity
  8
1
 62
     7
100
AcDbLine
 10
-45.30886839167989
 20
122.0098628201869
 30
0.0
 11
-45.30886839167989
 21
118.0098628201869
 31
0.0
  0
LINE
  5
BB
330
1C9
100
AcDbEntity
  8
1
 62
     7
100
AcDbLine
 10
-45.80886839167988
 20
118.0098628201869
 30
0.0
 11
-45.30886839167989
 21
118.0098628201869
 31
0.0
  0
LINE
  5
BC
330
1C9
100
AcDbEntity
  8
1
 62
     7
100
AcDbLine
 10
-38.50886839167989
 20
92.259862820187
 30
0.0
 11
-44.30886839167988
 21
92.259862820187
 31
0.0
  0
LINE
  5
BD
330
1C9
100
AcDbEntity
  8
1
 62
     7
100
AcDbLine
 10
-38.50886839167989
 20
118.759862820187
 30
0.0
 11
-44.30886839167988
 21
118.759862820187
 31
0.0
  0
LINE
  5
BE
330
1C9
100
AcDbEntity
  8
1
 62
     7
100
AcDbLine
 10
-38.50886839167989
 20
118.759862820187
 30
0.0
 11
-38.50886839167989
 21
105.5098628201869
 31
0.0
  0
LINE
  5
BF
330
1C9
100
AcDbEntity
  8
1
 62
     7
100
AcDbLine
 10
-44.30886839167988
 20
118.759862820187
 30
0.0
 11
-45.80886839167988
 21
116.1617866088336
 31
0.0
  0
LINE
  5
C0
330
1C9
100
AcDbEntity
  8
1
 62
     7
100
AcDbLine
 10
-45.80886839167988
 20
116.1617866088336
 30
0.0
 11
-45.80886839167988
 21
88.50986282018698
 31
0.0
  0
LINE
  5
C1
330
1C9
100
AcDbEntity
  8
1
 62
     7
100
AcDbLine
 10
-45.80886839167988
 20
94.85793903154029
 30
0.0
 11
-44.30886839167988
 21
92.259862820187
 31
0.0
  0
LINE
  5
C2
330
1C9
100
AcDbEntity
  8
1
 62
     7
100
AcDbLine
 10
-48.5088683916799
 20
123.159862820187
 30
0.0
 11
-48.5088683916799
 21
87.85986282018702
 31
0.0
  0
LINE
  5
C3
330
1C9
100
AcDbEntity
  8
1
 62
     7
100
AcDbLine
 10
-46.0088683916799
 20
87.85986282018702
 30
0.0
 11
-46.0088683916799
 21
123.159862820187
 31
0.0
  0
LINE
  5
C4
330
1C9
100
AcDbEntity
  8
1
 62
     7
100
AcDbLine
 10
-44.30886839167988
 20
92.259862820187
 30
0.0
 11
-44.30886839167988
 21
118.759862820187
 31
0.0
  0
LINE
  5
C5
330
1C9
100
AcDbEntity
  8
1
 62
     7
100
AcDbLine
 10
-51.50886839167989
 20
89.20986282018706
 30
0.0
 11
-52.00886839167988
 21
89.20986282018706
 31
0.0
  0
LINE
  5
C6
330
1C9
100
AcDbEntity
  8
1
 62
     7
100
AcDbLine
 10
-50.81604806865234
 20
88.00986282018701
 30
0.0
 11
-51.50886839167989
 21
89.20986282018706
 31
0.0
  0
LINE
  5
C7
330
1C9
100
AcDbEntity
  8
1
 62
     7
100
AcDbLine
 10
-50.81604806865234
 20
123.0098628201869
 30
0.0
 11
-48.70886839167988
 21
123.0098628201869
 31
0.0
  0
LINE
  5
C8
330
1C9
100
AcDbEntity
  8
1
 62
     7
100
AcDbLine
 10
-51.50886839167989
 20
121.8098628201869
 30
0.0
 11
-50.81604806865234
 21
123.0098628201869
 31
0.0
  0
LINE
  5
C9
330
1C9
100
AcDbEntity
  8
1
 62
     7
100
AcDbLine
 10
-48.70886839167988
 20
88.00986282018701
 30
0.0
 11
-50.81604806865234
 21
88.00986282018701
 31
0.0
  0
LINE
  5
CA
330
1C9
100
AcDbEntity
  8
1
 62
     7
100
AcDbLine
 10
-48.70886839167988
 20
100.5098628201869
 30
0.0
 11
-48.5088683916799
 21
100.5098628201869
 31
0.0
  0
LINE
  5
CB
330
1C9
100
AcDbEntity
  8
1
 62
     7
100
AcDbLine
 10
-51.50886839167989
 20
89.20986282018706
 30
0.0
 11
-51.50886839167989
 21
121.8098628201869
 31
0.0
  0
LINE
  5
CC
330
1C9
100
AcDbEntity
  8
1
 62
     7
100
AcDbLine
 10
-50.81604806865234
 20
88.00986282018701
 30
0.0
 11
-50.81604806865234
 21
123.0098628201869
 31
0.0
  0
LINE
  5
CD
330
1C9
100
AcDbEntity
  8
1
 62
     7
100
AcDbLine
 10
-48.70886839167988
 20
88.00986282018701
 30
0.0
 11
-48.70886839167988
 21
123.0098628201869
 31
0.0
  0
LINE
  5
CE
330
1C9
100
AcDbEntity
  8
1
 62
     7
100
AcDbLine
 10
-52.00886839167988
 20
88.00986282018701
 30
0.0
 11
-52.00886839167988
 21
123.0098628201869
 31
0.0
  0
LINE
  5
CF
330
1C9
100
AcDbEntity
  8
1
 62
     7
100
AcDbLine
 10
-66.0088683916799
 20
123.784862820187
 30
0.0
 11
-66.0088683916799
 21
123.0098628201869
 31
0.0
  0
LINE
  5
D0
330
1C9
100
AcDbEntity
  8
1
 62
     7
100
AcDbLine
 10
-61.0088683916799
 20
123.784862820187
 30
0.0
 11
-66.0088683916799
 21
123.784862820187
 31
0.0
  0
LINE
  5
D1
330
1C9
100
AcDbEntity
  8
1
 62
     7
100
AcDbLine
 10
-68.5088683916799
 20
88.00986282018701
 30
0.0
 11
-69.50886839167989
 21
89.00986282018701
 31
0.0
  0
LINE
  5
D2
330
1C9
100
AcDbEntity
  8
1
 62
     7
100
AcDbLine
 10
-52.00886839167988
 20
88.00986282018701
 30
0.0
 11
-68.5088683916799
 21
88.00986282018701
 31
0.0
  0
LINE
  5
D3
330
1C9
100
AcDbEntity
  8
1
 62
     7
100
AcDbLine
 10
-68.5088683916799
 20
123.0098628201869
 30
0.0
 11
-52.00886839167988
 21
123.0098628201869
 31
0.0
  0
LINE
  5
D4
330
1C9
100
AcDbEntity
  8
1
 62
     7
100
AcDbLine
 10
-69.50886839167989
 20
122.0098628201869
 30
0.0
 11
-68.5088683916799
 21
123.0098628201869
 31
0.0
  0
LINE
  5
D5
330
1C9
100
AcDbEntity
  8
1
 62
     7
100
AcDbLine
 10
-71.00886839167991
 20
140.5098628201869
 30
0.0
 11
-69.50886839167989
 21
140.5098628201869
 31
0.0
  0
LINE
  5
D6
330
1C9
100
AcDbEntity
  8
1
 62
     7
100
AcDbLine
 10
-69.50886839167989
 20
89.50986282018702
 30
0.0
 11
-71.00886839167991
 21
89.50986282018702
 31
0.0
  0
LINE
  5
D7
330
1C9
100
AcDbEntity
  8
1
 62
     7
100
AcDbLine
 10
-68.5088683916799
 20
88.00986282018701
 30
0.0
 11
-68.5088683916799
 21
123.0098628201869
 31
0.0
  0
LINE
  5
D8
330
1C9
100
AcDbEntity
  8
1
 62
     7
100
AcDbLine
 10
-62.58886839167988
 20
140.0406174302141
 30
0.0
 11
-62.58886839167995
 21
123.784862820187
 31
0.0
  0
LINE
  5
D9
330
1C9
100
AcDbEntity
  8
1
 62
     7
100
AcDbLine
 10
-69.50886839167989
 20
89.00986282018701
 30
0.0
 11
-69.50886839167989
 21
140.5098628201869
 31
0.0
  0
LINE
  5
DA
330
1C9
100
AcDbEntity
  8
1
 62
     7
100
AcDbLine
 10
-71.00886839167991
 20
140.5098628201869
 30
0.0
 11
-71.00886839167991
 21
89.50986282018702
 31
0.0
  0
LINE
  5
DB
330
1C9
100
AcDbEntity
  8
1
  6
DASHDOT
 62
     3
100
AcDbLine
 10
114.918309900862
 20
101.0465961658622
 30
0.0
 11
118.5095578618462
 21
98.97318818886125
 31
0.0
  0
LINE
  5
DC
330
1C9
100
AcDbEntity
  8
1
  6
DASHDOT
 62
     3
100
AcDbLine
 10
99.45574328142912
 20
101.0458124744198
 30
0.0
 11
95.86449532044493
 21
98.97240449741884
 31
0.0
  0
LINE
  5
DD
330
1C9
100
AcDbEntity
  8
1
  6
DASHDOT
 62
     3
100
AcDbLine
 10
107.1863478944477
 20
114.4371798202791
 30
0.0
 11
107.1863478944477
 21
118.583995774281
 31
0.0
  0
LINE
  5
DE
330
1C9
100
AcDbEntity
  8
1
  6
DASHDOT
 62
     3
100
AcDbLine
 10
108.516601577425
 20
105.5098628201869
 30
0.0
 11
105.8569991404008
 21
105.5098628201869
 31
0.0
  0
LINE
  5
DF
330
1C9
100
AcDbEntity
  8
1
  6
DASHDOT
 62
     3
100
AcDbLine
 10
107.1868003589129
 20
104.1800616016749
 30
0.0
 11
107.1868003589129
 21
106.839664038699
 31
0.0
  0
LINE
  5
E0
330
1C9
100
AcDbEntity
  8
1
 62
     7
100
AcDbLine
 10
13.69684011828524
 20
123.784862820187
 30
0.0
 11
13.69684011828533
 21
140.0406174302141
 31
0.0
  0
LINE
  5
E1
330
1C9
100
AcDbEntity
  8
1
 62
     7
100
AcDbLine
 10
108.1868003589129
 20
109.409862820187
 30
0.0
 11
108.1868003589129
 21
108.3382899449332
 31
0.0
  0
LINE
  5
E2
330
1C9
100
AcDbEntity
  8
1
 62
     7
100
AcDbLine
 10
106.1868003589129
 20
109.409862820187
 30
0.0
 11
108.1868003589129
 21
109.409862820187
 31
0.0
  0
LINE
  5
E3
330
1C9
100
AcDbEntity
  8
1
 62
     7
100
AcDbLine
 10
106.1868003589129
 20
108.3382899449332
 30
0.0
 11
106.1868003589129
 21
109.409862820187
 31
0.0
  0
LINE
  5
E4
330
1C9
100
AcDbEntity
  8
1
 62
     7
100
AcDbLine
 10
17.11684011828532
 20
123.0098628201869
 30
0.0
 11
17.11684011828532
 21
123.784862820187
 31
0.0
  0
LINE
  5
E5
330
1C9
100
AcDbEntity
  8
1
 62
     7
100
AcDbLine
 10
109.2940848590675
 20
123.0336139036567
 30
0.0
 11
109.5019038424386
 21
123.809204908376
 31
0.0
  0
LINE
  5
E6
330
1C9
100
AcDbEntity
  8
1
 62
     7
100
AcDbLine
 10
116.4394901186822
 20
140.0413711103182
 30
0.0
 11
111.9167184081615
 21
123.1621572956197
 31
0.0
  0
LINE
  5
E7
330
1C9
100
AcDbEntity
  8
1
 62
     7
100
AcDbLine
 10
113.6940219285335
 20
122.6859302526311
 30
0.0
 11
118.216793639054
 21
139.5651440673294
 31
0.0
  0
LINE
  5
E8
330
1C9
100
AcDbEntity
  8
1
 62
     7
100
AcDbLine
 10
110.1394148877897
 20
123.6383843386082
 30
0.0
 11
114.6621865983104
 21
140.5175981533067
 31
0.0
  0
LINE
  5
E9
330
1C9
100
AcDbEntity
  8
1
 62
     7
100
AcDbLine
 10
114.3315329738842
 20
122.5151096828634
 30
0.0
 11
114.1237139905127
 21
121.7395186781442
 31
0.0
  0
LINE
  5
EA
330
1C9
100
AcDbEntity
  8
1
 62
     7
100
AcDbLine
 10
109.5019038424386
 20
123.809204908376
 30
0.0
 11
114.3315329738842
 21
122.5151096828634
 31
0.0
  0
LINE
  5
EB
330
1C9
100
AcDbEntity
  8
1
 62
     7
100
AcDbLine
 10
103.1868003589129
 20
139.509862820187
 30
0.0
 11
103.1868003589129
 21
122.7006306913439
 31
0.0
  0
LINE
  5
EC
330
1C9
100
AcDbEntity
  8
1
 62
     7
100
AcDbLine
 10
110.1868003589129
 20
140.5098628201869
 30
0.0
 11
104.1868003589129
 21
140.5098628201869
 31
0.0
  0
LINE
  5
ED
330
1C9
100
AcDbEntity
  8
1
 62
     7
100
AcDbLine
 10
111.1868003589129
 20
139.509862820187
 30
0.0
 11
111.1868003589129
 21
127.5472801319497
 31
0.0
  0
LINE
  5
EE
330
1C9
100
AcDbEntity
  8
1
 62
     7
100
AcDbLine
 10
108.7868003589129
 20
136.1598628201869
 30
0.0
 11
108.7868003589129
 21
131.859862820187
 31
0.0
  0
LINE
  5
EF
330
1C9
100
AcDbEntity
  8
1
 62
     7
100
AcDbLine
 10
105.5868003589129
 20
136.1598628201869
 30
0.0
 11
105.5868003589129
 21
131.859862820187
 31
0.0
  0
LINE
  5
F0
330
1C9
100
AcDbEntity
  8
1
 62
     7
100
AcDbLine
 10
29.61684011828532
 20
123.159862820187
 30
0.0
 11
32.11684011828533
 21
123.159862820187
 31
0.0
  0
LINE
  5
F1
330
1C9
100
AcDbEntity
  8
1
 62
     7
100
AcDbLine
 10
32.11684011828533
 20
123.159862820187
 30
0.0
 11
32.11684011828533
 21
121.0098628201869
 31
0.0
  0
LINE
  5
F2
330
1C9
100
AcDbEntity
  8
1
 62
     7
100
AcDbLine
 10
32.11684011828533
 20
121.0098628201869
 30
0.0
 11
32.31684011828532
 21
121.0098628201869
 31
0.0
  0
LINE
  5
F3
330
1C9
100
AcDbEntity
  8
1
 62
     7
100
AcDbLine
 10
32.11684011828533
 20
119.0098628201869
 30
0.0
 11
32.11684011828533
 21
110.5098628201869
 31
0.0
  0
LINE
  5
F4
330
1C9
100
AcDbEntity
  8
1
 62
     7
100
AcDbLine
 10
29.61684011828532
 20
113.7598628201869
 30
0.0
 11
32.11684011828533
 21
113.7598628201869
 31
0.0
  0
LINE
  5
F5
330
1C9
100
AcDbEntity
  8
1
 62
     7
100
AcDbLine
 10
32.11684011828533
 20
122.5098628201869
 30
0.0
 11
32.31684011828532
 21
122.5098628201869
 31
0.0
  0
LINE
  5
F6
330
1C9
100
AcDbEntity
  8
1
 62
     7
100
AcDbLine
 10
32.31684011828532
 20
122.5098628201869
 30
0.0
 11
32.31684011828532
 21
121.0098628201869
 31
0.0
  0
LINE
  5
F7
330
1C9
100
AcDbEntity
  8
1
 62
     7
100
AcDbLine
 10
32.31684011828532
 20
119.0098628201869
 30
0.0
 11
32.31684011828532
 21
110.5098628201869
 31
0.0
  0
LINE
  5
F8
330
1C9
100
AcDbEntity
  8
1
 62
     7
100
AcDbLine
 10
32.31684011828532
 20
122.0098628201869
 30
0.0
 11
32.81684011828532
 21
122.0098628201869
 31
0.0
  0
LINE
  5
F9
330
1C9
100
AcDbEntity
  8
1
 62
     7
100
AcDbLine
 10
32.81684011828532
 20
122.0098628201869
 30
0.0
 11
32.81684011828532
 21
118.0098628201869
 31
0.0
  0
LINE
  5
FA
330
1C9
100
AcDbEntity
  8
1
 62
     7
100
AcDbLine
 10
32.31684011828532
 20
118.0098628201869
 30
0.0
 11
32.81684011828532
 21
118.0098628201869
 31
0.0
  0
LINE
  5
FB
330
1C9
100
AcDbEntity
  8
1
 62
     7
100
AcDbLine
 10
32.31684011828532
 20
119.0098628201869
 30
0.0
 11
32.11684011828533
 21
119.0098628201869
 31
0.0
  0
LINE
  5
FC
330
1C9
100
AcDbEntity
  8
1
 62
     7
100
AcDbLine
 10
37.61684011828533
 20
113.0098628201869
 30
0.0
 11
37.61684011828533
 21
108.5098628201869
 31
0.0
  0
LINE
  5
FD
330
1C9
100
AcDbEntity
  8
1
 62
     7
100
AcDbLine
 10
39.61684011828533
 20
113.0098628201869
 30
0.0
 11
37.61684011828533
 21
113.0098628201869
 31
0.0
  0
LINE
  5
FE
330
1C9
100
AcDbEntity
  8
1
 62
     7
100
AcDbLine
 10
32.31684011828532
 20
111.0098628201869
 30
0.0
 11
37.61684011828533
 21
111.0098628201869
 31
0.0
  0
LINE
  5
FF
330
1C9
100
AcDbEntity
  8
1
 62
     7
100
AcDbLine
 10
39.61684011828533
 20
118.759862820187
 30
0.0
 11
33.81684011828532
 21
118.759862820187
 31
0.0
  0
LINE
  5
100
330
1C9
100
AcDbEntity
  8
1
 62
     7
100
AcDbLine
 10
39.61684011828533
 20
118.759862820187
 30
0.0
 11
39.61684011828533
 21
113.0098628201869
 31
0.0
  0
LINE
  5
101
330
1C9
100
AcDbEntity
  8
1
 62
     3
100
AcDbLine
 10
32.31684011828532
 20
115.0098628201869
 30
0.0
 11
39.61684011828533
 21
115.0098628201869
 31
0.0
  0
LINE
  5
102
330
1C9
100
AcDbEntity
  8
1
 62
     3
100
AcDbLine
 10
33.38382741639311
 20
118.0098628201869
 30
0.0
 11
39.61684011828533
 21
118.0098628201869
 31
0.0
  0
LINE
  5
103
330
1C9
100
AcDbEntity
  8
1
  6
CENTER
 62
     3
100
AcDbLine
 10
30.12684011828532
 20
116.509862820187
 30
0.0
 11
41.80684011828533
 21
116.509862820187
 31
0.0
  0
LINE
  5
104
330
1C9
100
AcDbEntity
  8
1
 62
     7
100
AcDbLine
 10
32.31684011828532
 20
115.309862820187
 30
0.0
 11
39.61684011828533
 21
115.309862820187
 31
0.0
  0
LINE
  5
105
330
1C9
100
AcDbEntity
  8
1
 62
     7
100
AcDbLine
 10
33.21062233563623
 20
117.709862820187
 30
0.0
 11
39.61684011828533
 21
117.709862820187
 31
0.0
  0
LINE
  5
106
330
1C9
100
AcDbEntity
  8
1
 62
     7
100
AcDbLine
 10
33.81684011828532
 20
118.759862820187
 30
0.0
 11
32.31684011828532
 21
116.1617866088336
 31
0.0
  0
LINE
  5
107
330
1C9
100
AcDbEntity
  8
1
 62
     7
100
AcDbLine
 10
29.61684011828532
 20
110.5098628201869
 30
0.0
 11
29.61684011828532
 21
123.159862820187
 31
0.0
  0
LINE
  5
108
330
1C9
100
AcDbEntity
  8
1
 62
     7
100
AcDbLine
 10
18.61684011828532
 20
108.5098628201869
 30
0.0
 11
37.61684011828533
 21
108.5098628201869
 31
0.0
  0
LINE
  5
109
330
1C9
100
AcDbEntity
  8
1
 62
     7
100
AcDbLine
 10
18.61684011828532
 20
109.409862820187
 30
0.0
 11
37.61684011828533
 21
109.409862820187
 31
0.0
  0
LINE
  5
10A
330
1C9
100
AcDbEntity
  8
1
 62
     7
100
AcDbLine
 10
27.30966044131288
 20
123.0098628201869
 30
0.0
 11
29.41684011828532
 21
123.0098628201869
 31
0.0
  0
LINE
  5
10B
330
1C9
100
AcDbEntity
  8
1
 62
     7
100
AcDbLine
 10
26.61684011828532
 20
121.8098628201869
 30
0.0
 11
27.30966044131288
 21
123.0098628201869
 31
0.0
  0
LINE
  5
10C
330
1C9
100
AcDbEntity
  8
1
 62
     7
100
AcDbLine
 10
24.61684011828532
 20
121.8098628201869
 30
0.0
 11
26.61684011828532
 21
121.8098628201869
 31
0.0
  0
LINE
  5
10D
330
1C9
100
AcDbEntity
  8
1
 62
     7
100
AcDbLine
 10
24.61684011828532
 20
112.509862820187
 30
0.0
 11
24.61684011828532
 21
121.8098628201869
 31
0.0
  0
LINE
  5
10E
330
1C9
100
AcDbEntity
  8
1
 62
     7
100
AcDbLine
 10
20.11684011828533
 20
112.509862820187
 30
0.0
 11
24.61684011828532
 21
112.509862820187
 31
0.0
  0
LINE
  5
10F
330
1C9
100
AcDbEntity
  8
1
 62
     7
100
AcDbLine
 10
20.11684011828533
 20
110.0098628201869
 30
0.0
 11
20.11684011828533
 21
112.509862820187
 31
0.0
  0
LINE
  5
110
330
1C9
100
AcDbEntity
  8
1
 62
     7
100
AcDbLine
 10
18.61684011828532
 20
110.0098628201869
 30
0.0
 11
20.11684011828533
 21
110.0098628201869
 31
0.0
  0
LINE
  5
111
330
1C9
100
AcDbEntity
  8
1
 62
     7
100
AcDbLine
 10
28.41684011828532
 20
115.7598628201869
 30
0.0
 11
28.41684011828532
 21
111.0098628201869
 31
0.0
  0
LINE
  5
112
330
1C9
100
AcDbEntity
  8
1
 62
     7
100
AcDbLine
 10
37.61684011828533
 20
110.5098628201869
 30
0.0
 11
28.91684011828532
 21
110.5098628201869
 31
0.0
  0
LINE
  5
113
330
1C9
100
AcDbEntity
  8
1
 62
     7
100
AcDbLine
 10
28.41684011828532
 20
115.7598628201869
 30
0.0
 11
29.41684011828532
 21
116.7598628201869
 31
0.0
  0
LINE
  5
114
330
1C9
100
AcDbEntity
  8
1
 62
     7
100
AcDbLine
 10
29.41684011828532
 20
123.0098628201869
 30
0.0
 11
29.41684011828532
 21
110.5098628201869
 31
0.0
  0
LINE
  5
115
330
1C9
100
AcDbEntity
  8
1
 62
     7
100
AcDbLine
 10
12.11684011828531
 20
123.784862820187
 30
0.0
 11
12.11684011828531
 21
123.0098628201869
 31
0.0
  0
LINE
  5
116
330
1C9
100
AcDbEntity
  8
1
 62
     7
100
AcDbLine
 10
17.11684011828532
 20
123.784862820187
 30
0.0
 11
12.11684011828531
 21
123.784862820187
 31
0.0
  0
LINE
  5
117
330
1C9
100
AcDbEntity
  8
1
 62
     7
100
AcDbLine
 10
19.61684011828532
 20
113.0098628201869
 30
0.0
 11
23.61684011828532
 21
113.0098628201869
 31
0.0
  0
LINE
  5
118
330
1C9
100
AcDbEntity
  8
1
 62
     7
100
AcDbLine
 10
19.61684011828532
 20
113.3598628201869
 30
0.0
 11
19.61684011828532
 21
111.8098628201869
 31
0.0
  0
LINE
  5
119
330
1C9
100
AcDbEntity
  8
1
 62
     7
100
AcDbLine
 10
18.46684011828532
 20
113.3598628201869
 30
0.0
 11
19.61684011828532
 21
113.3598628201869
 31
0.0
  0
LINE
  5
11A
330
1C9
100
AcDbEntity
  8
1
 62
     7
100
AcDbLine
 10
23.61684011828532
 20
122.3098628201868
 30
0.0
 11
23.61684011828532
 21
112.509862820187
 31
0.0
  0
LINE
  5
11B
330
1C9
100
AcDbEntity
  8
1
 62
     7
100
AcDbLine
 10
23.61684011828532
 20
122.3098628201868
 30
0.0
 11
26.11684011828533
 21
122.3098628201868
 31
0.0
  0
LINE
  5
11C
330
1C9
100
AcDbEntity
  8
1
 62
     7
100
AcDbLine
 10
9.616840118285331
 20
123.0098628201869
 30
0.0
 11
26.11684011828533
 21
123.0098628201869
 31
0.0
  0
LINE
  5
11D
330
1C9
100
AcDbEntity
  8
1
 62
     7
100
AcDbLine
 10
8.616840118285331
 20
122.0098628201869
 30
0.0
 11
9.616840118285331
 21
123.0098628201869
 31
0.0
  0
LINE
  5
11E
330
1C9
100
AcDbEntity
  8
1
 62
     7
100
AcDbLine
 10
8.616840118285331
 20
114.509862820187
 30
0.0
 11
9.482865522069774
 21
113.0098628201869
 31
0.0
  0
LINE
  5
11F
330
1C9
100
AcDbEntity
  8
1
 62
     7
100
AcDbLine
 10
26.11684011828533
 20
123.0098628201869
 30
0.0
 11
26.11684011828533
 21
121.8098628201869
 31
0.0
  0
LINE
  5
120
330
1C9
100
AcDbEntity
  8
1
 62
     7
100
AcDbLine
 10
7.116840118285316
 20
140.5098628201869
 30
0.0
 11
8.616840118285317
 21
140.5098628201869
 31
0.0
  0
LINE
  5
121
330
1C9
100
AcDbEntity
  8
1
 62
     7
100
AcDbLine
 10
7.116840118285316
 20
137.759862820187
 30
0.0
 11
8.616840118285317
 21
137.759862820187
 31
0.0
  0
LINE
  5
122
330
1C9
100
AcDbEntity
  8
1
 62
     7
100
AcDbLine
 10
7.116840118285316
 20
130.259862820187
 30
0.0
 11
8.616840118285317
 21
130.259862820187
 31
0.0
  0
LINE
  5
123
330
1C9
100
AcDbEntity
  8
1
 62
     7
100
AcDbLine
 10
7.116840118285316
 20
111.509862820187
 30
0.0
 11
8.616840118285317
 21
111.509862820187
 31
0.0
  0
LINE
  5
124
330
1C9
100
AcDbEntity
  8
1
 62
     3
100
AcDbLine
 10
15.00684011828532
 20
143.001422574852
 30
0.0
 11
15.00684011828532
 21
140.0406174302141
 31
0.0
  0
LINE
  5
125
330
1C9
100
AcDbEntity
  8
1
 62
     3
100
AcDbLine
 10
14.22684011828533
 20
140.0406174302141
 30
0.0
 11
14.22684011828533
 21
143.001422574852
 31
0.0
  0
LINE
  5
126
330
1C9
100
AcDbEntity
  8
1
 62
     7
100
AcDbLine
 10
13.69684011828533
 20
140.0406174302141
 30
0.0
 11
15.53684011828533
 21
140.0406174302141
 31
0.0
  0
LINE
  5
127
330
1C9
100
AcDbEntity
  8
1
 62
     7
100
AcDbLine
 10
15.53684011828533
 20
140.0406174302141
 30
0.0
 11
15.53684011828527
 21
123.784862820187
 31
0.0
  0
LINE
  5
128
330
1C9
100
AcDbEntity
  8
1
 62
     7
100
AcDbLine
 10
9.156840118285325
 20
108.5098628201869
 30
0.0
 11
13.07684011828532
 21
108.5098628201869
 31
0.0
  0
LINE
  5
129
330
1C9
100
AcDbEntity
  8
1
 62
     7
100
AcDbLine
 10
9.156840118285325
 20
113.0098628201869
 30
0.0
 11
18.46684011828532
 21
113.0098628201869
 31
0.0
  0
LINE
  5
12A
330
1C9
100
AcDbEntity
  8
1
 62
     7
100
AcDbLine
 10
11.79184011828532
 20
111.928997115296
 30
0.0
 11
15.44184011828533
 21
111.928997115296
 31
0.0
  0
LINE
  5
12B
330
1C9
100
AcDbEntity
  8
1
 62
     7
100
AcDbLine
 10
10.44184011828533
 20
111.928997115296
 30
0.0
 11
8.616840118285326
 21
111.928997115296
 31
0.0
  0
LINE
  5
12C
330
1C9
100
AcDbEntity
  8
1
 62
     7
100
AcDbLine
 10
10.44184011828533
 20
109.5907285250779
 30
0.0
 11
8.616840118285326
 21
109.5907285250779
 31
0.0
  0
LINE
  5
12D
330
1C9
100
AcDbEntity
  8
1
 62
     7
100
AcDbLine
 10
11.79184011828532
 20
109.5907285250779
 30
0.0
 11
15.44184011828533
 21
109.5907285250779
 31
0.0
  0
LINE
  5
12E
330
1C9
100
AcDbEntity
  8
1
 62
     7
100
AcDbLine
 10
14.15684011828532
 20
108.5098628201869
 30
0.0
 11
18.07684011828532
 21
108.5098628201869
 31
0.0
  0
LINE
  5
12F
330
1C9
100
AcDbEntity
  8
1
 62
     7
100
AcDbLine
 10
16.79184011828532
 20
111.928997115296
 30
0.0
 11
18.61684011828532
 21
111.928997115296
 31
0.0
  0
LINE
  5
130
330
1C9
100
AcDbEntity
  8
1
 62
     7
100
AcDbLine
 10
16.79184011828532
 20
109.5907285250779
 30
0.0
 11
18.61684011828532
 21
109.5907285250779
 31
0.0
  0
LINE
  5
131
330
1C9
100
AcDbEntity
  8
1
 62
     7
100
AcDbLine
 10
18.46684011828532
 20
113.3598628201869
 30
0.0
 11
18.46684011828532
 21
112.8417201657484
 31
0.0
  0
LINE
  5
132
330
1C9
100
AcDbEntity
  8
1
 62
     7
100
AcDbLine
 10
13.61684011828533
 20
112.4698628201869
 30
0.0
 11
13.61684011828533
 21
109.049862820187
 31
0.0
  0
LINE
  5
133
330
1C9
100
AcDbEntity
  8
1
 62
     7
100
AcDbLine
 10
18.61684011828532
 20
111.8098628201869
 30
0.0
 11
18.61684011828532
 21
108.5098628201869
 31
0.0
  0
LINE
  5
134
330
1C9
100
AcDbEntity
  8
1
 62
     7
100
AcDbLine
 10
18.61684011828532
 20
111.8098628201869
 30
0.0
 11
19.61684011828532
 21
111.8098628201869
 31
0.0
  0
LINE
  5
135
330
1C9
100
AcDbEntity
  8
1
 62
     7
100
AcDbLine
 10
18.61684011828532
 20
111.8098628201869
 30
0.0
 11
18.61684011828532
 21
113.3598628201869
 31
0.0
  0
LINE
  5
136
330
1C9
100
AcDbEntity
  8
1
 62
     7
100
AcDbLine
 10
19.61684011828532
 20
111.8098628201869
 30
0.0
 11
19.61684011828532
 21
110.0098628201869
 31
0.0
  0
LINE
  5
137
330
1C9
100
AcDbEntity
  8
1
 62
     7
100
AcDbLine
 10
7.116840118285316
 20
140.5098628201869
 30
0.0
 11
7.116840118285316
 21
111.509862820187
 31
0.0
  0
ARC
  5
138
330
1C9
100
AcDbEntity
  8
1
 62
     7
100
AcDbCircle
 10
37.11684011828533
 20
97.259862820187
 30
0.0
 40
6.999999999999963
100
AcDbArc
 50
163.0422366999958
 51
196.9577633000042
  0
ARC
  5
139
330
1C9
100
AcDbEntity
  8
1
 62
     7
100
AcDbCircle
 10
-138.5788286323074
 20
105.5098628201869
 30
0.0
 40
16.49999999999999
100
AcDbArc
 50
270.0
 51
74.92794297007382
  0
ARC
  5
13A
330
1C9
100
AcDbEntity
  8
1
 62
     7
100
AcDbCircle
 10
-138.5788286323074
 20
105.5098628201869
 30
0.0
 40
17.49999999999999
100
AcDbArc
 50
270.0
 51
76.7870196398414
  0
ARC
  5
13B
330
1C9
100
AcDbEntity
  8
1
 62
     7
100
AcDbCircle
 10
-138.5788286323074
 20
105.5098628201869
 30
0.0
 40
16.49999999999999
100
AcDbArc
 50
105.072057029926
 51
270.0
  0
ARC
  5
13C
330
1C9
100
AcDbEntity
  8
1
 62
     7
100
AcDbCircle
 10
-138.5788286323074
 20
105.5098628201869
 30
0.0
 40
17.49999999999998
100
AcDbArc
 50
103.2129803601586
 51
270.0
  0
ARC
  5
13D
330
1C9
100
AcDbEntity
  8
1
 62
     7
100
AcDbCircle
 10
-144.5788286323075
 20
122.480425568664
 30
0.0
 40
1.999999999999984
100
AcDbArc
 50
289.4712206344912
 51
0.0
  0
ARC
  5
13E
330
1C9
100
AcDbEntity
  8
1
 62
     7
100
AcDbCircle
 10
-138.5788286323074
 20
105.5098628201869
 30
0.0
 40
16.00000000000001
100
AcDbArc
 50
109.4712206344909
 51
70.52877936550938
  0
ARC
  5
13F
330
1C9
100
AcDbEntity
  8
1
 62
     7
100
AcDbCircle
 10
-132.5788286323074
 20
122.480425568664
 30
0.0
 40
2.0
100
AcDbArc
 50
180.0
 51
250.5287793655085
  0
ARC
  5
140
330
1C9
100
AcDbEntity
  8
1
 62
     7
100
AcDbCircle
 10
-138.5788286323074
 20
136.1598628201869
 30
0.0
 40
1.599999999999994
100
AcDbArc
 50
0.0
 51
90.0
  0
ARC
  5
141
330
1C9
100
AcDbEntity
  8
1
 62
     7
100
AcDbCircle
 10
-138.5788286323074
 20
131.859862820187
 30
0.0
 40
1.599999999999994
100
AcDbArc
 50
180.0
 51
270.0
  0
ARC
  5
142
330
1C9
100
AcDbEntity
  8
1
 62
     7
100
AcDbCircle
 10
-138.5788286323074
 20
136.1598628201869
 30
0.0
 40
1.600000000000023
100
AcDbArc
 50
90.0
 51
180.0
  0
ARC
  5
143
330
1C9
100
AcDbEntity
  8
1
 62
     7
100
AcDbCircle
 10
-138.5788286323074
 20
131.859862820187
 30
0.0
 40
1.599999999999994
100
AcDbArc
 50
270.0
 51
0.0
  0
ARC
  5
144
330
1C9
100
AcDbEntity
  8
1
 62
     7
100
AcDbCircle
 10
11.11684011828532
 20
100.2598628201869
 30
0.0
 40
1.349999999999984
100
AcDbArc
 50
239.9999999999996
 51
300.0000000000003
  0
ARC
  5
145
330
1C9
100
AcDbEntity
  8
1
 62
     7
100
AcDbCircle
 10
11.11684011828532
 20
100.2598628201869
 30
0.0
 40
1.349999999999984
100
AcDbArc
 50
300.0000000000003
 51
60.00000000000021
  0
ARC
  5
146
330
1C9
100
AcDbEntity
  8
1
 62
     7
100
AcDbCircle
 10
11.11684011828532
 20
100.2598628201869
 30
0.0
 40
1.350000000000008
100
AcDbArc
 50
119.9999999999997
 51
239.9999999999996
  0
ARC
  5
147
330
1C9
100
AcDbEntity
  8
1
 62
     7
100
AcDbCircle
 10
11.11684011828532
 20
100.2598628201869
 30
0.0
 40
1.35000000000001
100
AcDbArc
 50
60.00000000000021
 51
119.9999999999997
  0
ARC
  5
148
330
1C9
100
AcDbEntity
  8
1
 62
     7
100
AcDbCircle
 10
16.11684011828532
 20
100.2598628201869
 30
0.0
 40
1.349999999999984
100
AcDbArc
 50
239.9999999999995
 51
300.0000000000003
  0
ARC
  5
149
330
1C9
100
AcDbEntity
  8
1
 62
     7
100
AcDbCircle
 10
16.11684011828532
 20
100.2598628201869
 30
0.0
 40
1.349999999999984
100
AcDbArc
 50
300.0000000000003
 51
60.00000000000034
  0
ARC
  5
14A
330
1C9
100
AcDbEntity
  8
1
 62
     7
100
AcDbCircle
 10
16.11684011828532
 20
100.2598628201869
 30
0.0
 40
1.35000000000001
100
AcDbArc
 50
119.9999999999997
 51
239.9999999999995
  0
ARC
  5
14B
330
1C9
100
AcDbEntity
  8
1
 62
     7
100
AcDbCircle
 10
16.11684011828532
 20
100.2598628201869
 30
0.0
 40
1.350000000000008
100
AcDbArc
 50
60.00000000000034
 51
119.9999999999997
  0
ARC
  5
14C
330
1C9
100
AcDbEntity
  8
1
  6
DASHDOT
 62
     3
100
AcDbCircle
 10
107.1876544397259
 20
105.5098921773616
 30
0.0
 40
10.99999999999955
100
AcDbArc
 50
319.1841728788991
 51
340.8158271210973
  0
ARC
  5
14D
330
1C9
100
AcDbEntity
  8
1
  6
DASHDOT
 62
     3
100
AcDbCircle
 10
107.1863987425659
 20
105.5091084859193
 30
0.0
 40
11.00000000000002
100
AcDbArc
 50
199.184172878901
 51
220.8158271210986
  0
ARC
  5
14E
330
1C9
100
AcDbEntity
  8
1
  6
DASHDOT
 62
     3
100
AcDbCircle
 10
107.1863478944477
 20
105.51058779728
 30
0.0
 40
10.99999999999998
100
AcDbArc
 50
79.18417287890145
 51
100.8158271210986
  0
ARC
  5
14F
330
1C9
100
AcDbEntity
  8
1
 62
     7
100
AcDbCircle
 10
107.1868003589124
 20
115.827807444589
 30
0.0
 40
7.082055375597916
100
AcDbArc
 50
64.93755065403371
 51
90.0
  0
ARC
  5
150
330
1C9
100
AcDbEntity
  8
1
 62
     7
100
AcDbCircle
 10
107.1868003589115
 20
105.5098628201869
 30
0.0
 40
16.99999999999786
100
AcDbArc
 50
220.1642486217273
 51
319.8357513782785
  0
ARC
  5
151
330
1C9
100
AcDbEntity
  8
1
 62
     7
100
AcDbCircle
 10
107.1868003589115
 20
105.5098628201869
 30
0.0
 40
16.99999999999866
100
AcDbArc
 50
100.1642486217194
 51
199.8357513782772
  0
ARC
  5
152
330
1C9
100
AcDbEntity
  8
1
 62
     7
100
AcDbCircle
 10
116.1224025184864
 20
100.3508905079862
 30
0.0
 40
7.082055375597803
100
AcDbArc
 50
304.9375506540334
 51
355.0624493459577
  0
ARC
  5
153
330
1C9
100
AcDbEntity
  8
1
 62
     7
100
AcDbCircle
 10
98.25119819933986
 20
100.3508905079854
 30
0.0
 40
7.082055375597882
100
AcDbArc
 50
184.9375506540328
 51
235.0624493459569
  0
ARC
  5
154
330
1C9
100
AcDbEntity
  8
1
 62
     7
100
AcDbCircle
 10
107.1868003589115
 20
105.5098628201869
 30
0.0
 40
17.00000000000015
100
AcDbArc
 50
340.1642486217256
 51
79.8357513782708
  0
ARC
  5
155
330
1C9
100
AcDbEntity
  8
1
 62
     7
100
AcDbCircle
 10
107.1868003589124
 20
115.827807444589
 30
0.0
 40
7.082055375597901
100
AcDbArc
 50
90.0
 51
115.062449345957
  0
ARC
  5
156
330
1C9
100
AcDbEntity
  8
1
 62
     7
100
AcDbCircle
 10
107.1868003589129
 20
120.0099033265056
 30
0.0
 40
2.000022348599138
100
AcDbArc
 50
318.1846273834667
 51
326.5136555661397
  0
ARC
  5
157
330
1C9
100
AcDbEntity
  8
1
 62
     7
100
AcDbCircle
 10
107.1863987425665
 20
105.5091084859206
 30
0.0
 40
13.50079818089719
100
AcDbArc
 50
41.03615852119881
 51
82.90112753857407
  0
ARC
  5
158
330
1C9
100
AcDbEntity
  8
1
 62
     7
100
AcDbCircle
 10
107.1872019752595
 20
105.5091084859199
 30
0.0
 40
13.50079818089776
100
AcDbArc
 50
97.09887246142686
 51
138.9638414787997
  0
ARC
  5
159
330
1C9
100
AcDbEntity
  8
1
 62
     7
100
AcDbCircle
 10
107.185946278102
 20
105.5098921773616
 30
0.0
 40
13.50079818089714
100
AcDbArc
 50
337.098872461426
 51
18.96384147880064
  0
ARC
  5
15A
330
1C9
100
AcDbEntity
  8
1
 62
     7
100
AcDbCircle
 10
107.1863478944477
 20
105.51058779728
 30
0.0
 40
13.50079818089853
100
AcDbArc
 50
281.0361585212013
 51
322.9011275385719
  0
ARC
  5
15B
330
1C9
100
AcDbEntity
  8
1
 62
     7
100
AcDbCircle
 10
119.7442037932872
 20
98.2598425670282
 30
0.0
 40
2.000022348598455
100
AcDbArc
 50
198.1331793360645
 51
206.5136555661668
  0
ARC
  5
15C
330
1C9
100
AcDbEntity
  8
1
 62
     7
100
AcDbCircle
 10
94.6293969245379
 20
98.25984256702783
 30
0.0
 40
2.0000223485989
100
AcDbArc
 50
78.16550704505849
 51
86.51365556614935
  0
ARC
  5
15D
330
1C9
100
AcDbEntity
  8
1
 62
     7
100
AcDbCircle
 10
107.1876544397259
 20
105.5098921773616
 30
0.0
 40
13.50079818089914
100
AcDbArc
 50
161.0361585212026
 51
202.9011275385709
  0
ARC
  5
15E
330
1C9
100
AcDbEntity
  8
1
 62
     7
100
AcDbCircle
 10
107.1872528233775
 20
105.5105877972791
 30
0.0
 40
13.50079818089762
100
AcDbArc
 50
217.0988724614268
 51
258.9638414788
  0
ARC
  5
15F
330
1C9
100
AcDbEntity
  8
1
 62
     7
100
AcDbCircle
 10
116.841957524177
 20
113.9132971631526
 30
0.0
 40
0.7000090374967595
100
AcDbArc
 50
349.8615249431745
 51
41.03396482196759
  0
ARC
  5
160
330
1C9
100
AcDbEntity
  8
1
 62
     7
100
AcDbCircle
 10
109.6368093963236
 20
92.9465342660541
 30
0.0
 40
0.7000090374967775
100
AcDbArc
 50
229.7653731888472
 51
281.0339648219685
  0
ARC
  5
161
330
1C9
100
AcDbEntity
  8
1
 62
     7
100
AcDbCircle
 10
95.08163415623808
 20
109.6697570313541
 30
0.0
 40
0.7000090374968533
100
AcDbArc
 50
109.9252115730187
 51
161.0339648219633
  0
ARC
  5
162
330
1C9
100
AcDbEntity
  8
1
 62
     7
100
AcDbCircle
 10
104.7367913215015
 20
92.94653426605483
 30
0.0
 40
0.7000090374973518
100
AcDbArc
 50
258.9660351780916
 51
310.2198057459858
  0
ARC
  5
163
330
1C9
100
AcDbEntity
  8
1
 62
     7
100
AcDbCircle
 10
97.53164319364937
 20
113.9132971631527
 30
0.0
 40
0.7000090374971241
100
AcDbArc
 50
138.966035178069
 51
190.0615924872231
  0
ARC
  5
164
330
1C9
100
AcDbEntity
  8
1
 62
     7
100
AcDbCircle
 10
119.2919665615879
 20
109.6697570313541
 30
0.0
 40
0.700009037496673
100
AcDbArc
 50
18.96603517803311
 51
70.16649195711351
  0
ARC
  5
165
330
1C9
100
AcDbEntity
  8
1
 62
     7
100
AcDbCircle
 10
107.1868003589129
 20
120.0099033265056
 30
0.0
 40
2.00002234859912
100
AcDbArc
 50
213.4863444338598
 51
221.8117966816314
  0
ARC
  5
166
330
1C9
100
AcDbEntity
  8
1
 62
     7
100
AcDbCircle
 10
94.6293969245379
 20
98.25984256702783
 30
0.0
 40
2.000022348598868
100
AcDbArc
 50
333.4863444338499
 51
341.8412426360762
  0
ARC
  5
167
330
1C9
100
AcDbEntity
  8
1
 62
     7
100
AcDbCircle
 10
119.7442037932872
 20
98.2598425670282
 30
0.0
 40
2.0000223485985
100
AcDbArc
 50
93.48634443383177
 51
101.8636469176779
  0
ARC
  5
168
330
1C9
100
AcDbEntity
  8
1
 62
     7
100
AcDbCircle
 10
119.7441687137867
 20
98.25986282018696
 30
0.0
 40
1.750000000000067
100
AcDbArc
 50
240.0000000000163
 51
108.0918214367269
  0
ARC
  5
169
330
1C9
100
AcDbEntity
  8
1
 62
     7
100
AcDbCircle
 10
119.7441687137867
 20
98.25986282018696
 30
0.0
 40
1.750000000000067
100
AcDbArc
 50
191.9050048081516
 51
240.0000000000163
  0
ARC
  5
16A
330
1C9
100
AcDbEntity
  8
1
 62
     7
100
AcDbCircle
 10
94.62943200403852
 20
98.259862820187
 30
0.0
 40
1.75
100
AcDbArc
 50
71.94491977444524
 51
119.9999999999973
  0
ARC
  5
16B
330
1C9
100
AcDbEntity
  8
1
 62
     7
100
AcDbCircle
 10
94.62943200403852
 20
98.259862820187
 30
0.0
 40
1.749999999999995
100
AcDbArc
 50
119.9999999999973
 51
348.0618299255442
  0
ARC
  5
16C
330
1C9
100
AcDbEntity
  8
1
 62
     7
100
AcDbCircle
 10
107.1868003589129
 20
120.0098628201869
 30
0.0
 40
1.75
100
AcDbArc
 50
0.0
 51
228.0256587838195
  0
ARC
  5
16D
330
1C9
100
AcDbEntity
  8
1
 62
     7
100
AcDbCircle
 10
107.1868003589129
 20
120.0098628201869
 30
0.0
 40
1.749999999999965
100
AcDbArc
 50
311.97076527129
 51
0.0
  0
ARC
  5
16E
330
1C9
100
AcDbEntity
  8
1
 62
     7
100
AcDbCircle
 10
107.1868003589129
 20
136.1598628201869
 30
0.0
 40
1.600000000000108
100
AcDbArc
 50
90.0
 51
180.0
  0
ARC
  5
16F
330
1C9
100
AcDbEntity
  8
1
 62
     7
100
AcDbCircle
 10
107.1868003589129
 20
131.859862820187
 30
0.0
 40
1.599999999999994
100
AcDbArc
 50
270.0
 51
0.0
  0
ARC
  5
170
330
1C9
100
AcDbEntity
  8
1
 62
     7
100
AcDbCircle
 10
107.1868003589129
 20
136.1598628201869
 30
0.0
 40
1.600000000000092
100
AcDbArc
 50
0.0
 51
90.0
  0
ARC
  5
171
330
1C9
100
AcDbEntity
  8
1
 62
     7
100
AcDbCircle
 10
107.1868003589129
 20
131.859862820187
 30
0.0
 40
1.600000000000008
100
AcDbArc
 50
180.0
 51
270.0
  0
ARC
  5
172
330
1C9
100
AcDbEntity
  8
1
 62
     7
100
AcDbCircle
 10
11.11684011828532
 20
110.7598628201869
 30
0.0
 40
1.35000000000001
100
AcDbArc
 50
60.00000000000021
 51
119.9999999999997
  0
ARC
  5
173
330
1C9
100
AcDbEntity
  8
1
 62
     7
100
AcDbCircle
 10
11.11684011828532
 20
110.7598628201869
 30
0.0
 40
1.349999999999996
100
AcDbArc
 50
300.0
 51
60.00000000000021
  0
ARC
  5
174
330
1C9
100
AcDbEntity
  8
1
 62
     7
100
AcDbCircle
 10
11.11684011828532
 20
110.7598628201869
 30
0.0
 40
1.350000000000008
100
AcDbArc
 50
119.9999999999997
 51
239.9999999999999
  0
ARC
  5
175
330
1C9
100
AcDbEntity
  8
1
 62
     7
100
AcDbCircle
 10
11.11684011828532
 20
110.7598628201869
 30
0.0
 40
1.349999999999996
100
AcDbArc
 50
239.9999999999999
 51
300.0
  0
ARC
  5
176
330
1C9
100
AcDbEntity
  8
1
 62
     7
100
AcDbCircle
 10
16.11684011828532
 20
110.7598628201869
 30
0.0
 40
1.350000000000008
100
AcDbArc
 50
60.00000000000034
 51
119.9999999999997
  0
ARC
  5
177
330
1C9
100
AcDbEntity
  8
1
 62
     7
100
AcDbCircle
 10
16.11684011828532
 20
110.7598628201869
 30
0.0
 40
1.349999999999995
100
AcDbArc
 50
299.9999999999999
 51
60.00000000000034
  0
ARC
  5
178
330
1C9
100
AcDbEntity
  8
1
 62
     7
100
AcDbCircle
 10
16.11684011828532
 20
110.7598628201869
 30
0.0
 40
1.35000000000001
100
AcDbArc
 50
119.9999999999997
 51
239.9999999999999
  0
ARC
  5
179
330
1C9
100
AcDbEntity
  8
1
 62
     7
100
AcDbCircle
 10
16.11684011828532
 20
110.7598628201869
 30
0.0
 40
1.349999999999996
100
AcDbArc
 50
239.9999999999999
 51
299.9999999999999
  0
ARC
  5
17A
330
1C9
100
AcDbEntity
  8
1
 62
     7
100
AcDbCircle
 10
31.81684011828531
 20
94.80986282018699
 30
0.0
 40
0.299999999999983
100
AcDbArc
 50
270.0
 51
0.0
  0
ARC
  5
17B
330
1C9
100
AcDbEntity
  8
1
 62
     7
100
AcDbCircle
 10
31.81684011828531
 20
99.70986282018699
 30
0.0
 40
0.3000000000000078
100
AcDbArc
 50
0.0
 51
90.0
  0
ARC
  5
17C
330
1C9
100
AcDbEntity
  8
1
 62
     7
100
AcDbCircle
 10
31.37771997666083
 20
95.50986282018699
 30
0.0
 40
0.9999999999999763
100
AcDbArc
 50
196.9577633000049
 51
270.0
  0
ARC
  5
17D
330
1C9
100
AcDbEntity
  8
1
 62
     7
100
AcDbCircle
 10
31.37771997666083
 20
99.00986282018699
 30
0.0
 40
0.9999999999999856
100
AcDbArc
 50
90.0
 51
163.042236699996
  0
ARC
  5
17E
330
1C9
100
AcDbEntity
  8
1
 62
     7
100
AcDbCircle
 10
-141.5788286323074
 20
139.509862820187
 30
0.0
 40
1.0
100
AcDbArc
 50
90.0
 51
180.0
  0
ARC
  5
17F
330
1C9
100
AcDbEntity
  8
1
 62
     7
100
AcDbCircle
 10
-135.5788286323074
 20
139.509862820187
 30
0.0
 40
1.0
100
AcDbArc
 50
0.0
 51
90.0
  0
ARC
  5
180
330
1C9
100
AcDbEntity
  8
1
 62
     7
100
AcDbCircle
 10
28.91684011828532
 20
100.009862820187
 30
0.0
 40
0.5
100
AcDbArc
 50
90.0
 51
180.0
  0
ARC
  5
181
330
1C9
100
AcDbEntity
  8
1
 62
     7
100
AcDbCircle
 10
9.156840118285325
 20
101.9698628201869
 30
0.0
 40
0.5399999999999922
100
AcDbArc
 50
90.0
 51
180.0
  0
ARC
  5
182
330
1C9
100
AcDbEntity
  8
1
 62
     7
100
AcDbCircle
 10
13.07684011828532
 20
98.549862820187
 30
0.0
 40
0.5399999999999922
100
AcDbArc
 50
270.0
 51
0.0
  0
ARC
  5
183
330
1C9
100
AcDbEntity
  8
1
 62
     7
100
AcDbCircle
 10
9.156840118285325
 20
98.549862820187
 30
0.0
 40
0.5399999999999992
100
AcDbArc
 50
180.0
 51
270.0
  0
ARC
  5
184
330
1C9
100
AcDbEntity
  8
1
 62
     7
100
AcDbCircle
 10
13.07684011828532
 20
101.9698628201869
 30
0.0
 40
0.5399999999999992
100
AcDbArc
 50
0.0
 51
90.0
  0
ARC
  5
185
330
1C9
100
AcDbEntity
  8
1
 62
     7
100
AcDbCircle
 10
14.15684011828532
 20
101.9698628201869
 30
0.0
 40
0.5399999999999922
100
AcDbArc
 50
90.0
 51
180.0
  0
ARC
  5
186
330
1C9
100
AcDbEntity
  8
1
 62
     7
100
AcDbCircle
 10
18.07684011828532
 20
98.549862820187
 30
0.0
 40
0.5399999999999922
100
AcDbArc
 50
270.0
 51
0.0
  0
ARC
  5
187
330
1C9
100
AcDbEntity
  8
1
 62
     7
100
AcDbCircle
 10
14.15684011828532
 20
98.549862820187
 30
0.0
 40
0.5400000000000011
100
AcDbArc
 50
180.0
 51
270.0
  0
ARC
  5
188
330
1C9
100
AcDbEntity
  8
1
 62
     7
100
AcDbCircle
 10
18.07684011828532
 20
101.9698628201869
 30
0.0
 40
0.5399999999999922
100
AcDbArc
 50
0.0
 51
90.0
  0
ARC
  5
189
330
1C9
100
AcDbEntity
  8
1
 62
     7
100
AcDbCircle
 10
110.1868003589129
 20
139.509862820187
 30
0.0
 40
1.0
100
AcDbArc
 50
0.0
 51
90.0
  0
ARC
  5
18A
330
1C9
100
AcDbEntity
  8
1
 62
     7
100
AcDbCircle
 10
104.1868003589129
 20
139.509862820187
 30
0.0
 40
1.0
100
AcDbArc
 50
90.0
 51
180.0
  0
ARC
  5
18B
330
1C9
100
AcDbEntity
  8
1
 62
     7
100
AcDbCircle
 10
28.91684011828532
 20
111.0098628201869
 30
0.0
 40
0.5
100
AcDbArc
 50
180.0
 51
270.0
  0
ARC
  5
18C
330
1C9
100
AcDbEntity
  8
1
 62
     7
100
AcDbCircle
 10
9.156840118285325
 20
109.049862820187
 30
0.0
 40
0.5399999999999992
100
AcDbArc
 50
180.0
 51
270.0
  0
ARC
  5
18D
330
1C9
100
AcDbEntity
  8
1
 62
     7
100
AcDbCircle
 10
13.07684011828532
 20
112.4698628201869
 30
0.0
 40
0.5399999999999992
100
AcDbArc
 50
0.0
 51
90.0
  0
ARC
  5
18E
330
1C9
100
AcDbEntity
  8
1
 62
     7
100
AcDbCircle
 10
9.156840118285325
 20
112.4698628201869
 30
0.0
 40
0.5399999999999922
100
AcDbArc
 50
90.0
 51
180.0
  0
ARC
  5
18F
330
1C9
100
AcDbEntity
  8
1
 62
     7
100
AcDbCircle
 10
13.07684011828532
 20
109.049862820187
 30
0.0
 40
0.5400000000000063
100
AcDbArc
 50
270.0
 51
0.0
  0
ARC
  5
190
330
1C9
100
AcDbEntity
  8
1
 62
     7
100
AcDbCircle
 10
14.15684011828532
 20
109.049862820187
 30
0.0
 40
0.5400000000000011
100
AcDbArc
 50
180.0
 51
270.0
  0
ARC
  5
191
330
1C9
100
AcDbEntity
  8
1
 62
     7
100
AcDbCircle
 10
18.07684011828532
 20
112.4698628201869
 30
0.0
 40
0.5399999999999922
100
AcDbArc
 50
0.0
 51
90.0
  0
ARC
  5
192
330
1C9
100
AcDbEntity
  8
1
 62
     7
100
AcDbCircle
 10
14.15684011828532
 20
112.4698628201869
 30
0.0
 40
0.5399999999999922
100
AcDbArc
 50
90.0
 51
180.0
  0
ARC
  5
193
330
1C9
100
AcDbEntity
  8
1
 62
     7
100
AcDbCircle
 10
18.07684011828532
 20
109.049862820187
 30
0.0
 40
0.5400000000000063
100
AcDbArc
 50
270.0
 51
0.0
  0
CIRCLE
  5
194
330
1C9
100
AcDbEntity
  8
1
 62
     7
100
AcDbCircle
 10
-138.5788286323074
 20
105.5098628201869
 30
0.0
 40
3.0
  0
CIRCLE
  5
195
330
1C9
100
AcDbEntity
  8
1
 62
     7
100
AcDbCircle
 10
-138.5788286323074
 20
105.5098628201869
 30
0.0
 40
6.0
  0
CIRCLE
  5
196
330
1C9
100
AcDbEntity
  8
1
 62
     7
100
AcDbCircle
 10
107.1868003589129
 20
105.5098628201869
 30
0.0
 40
3.0
  0
CIRCLE
  5
197
330
1C9
100
AcDbEntity
  8
1
 62
     7
100
AcDbCircle
 10
107.1863478944477
 20
116.51058779728
 30
0.0
 40
1.199999999999989
  0
CIRCLE
  5
198
330
1C9
100
AcDbEntity
  8
1
 62
     3
100
AcDbCircle
 10
107.1863478944477
 20
116.51058779728
 30
0.0
 40
1.5
  0
CIRCLE
  5
199
330
1C9
100
AcDbEntity
  8
1
 62
     3
100
AcDbCircle
 10
97.66006845281886
 20
100.01058779728
 30
0.0
 40
1.499999999999984
  0
CIRCLE
  5
19A
330
1C9
100
AcDbEntity
  8
1
 62
     7
100
AcDbCircle
 10
97.66006845281886
 20
100.01058779728
 30
0.0
 40
1.199999999999989
  0
CIRCLE
  5
19B
330
1C9
100
AcDbEntity
  8
1
 62
     3
100
AcDbCircle
 10
116.7126273360765
 20
100.01058779728
 30
0.0
 40
1.5
  0
CIRCLE
  5
19C
330
1C9
100
AcDbEntity
  8
1
 62
     7
100
AcDbCircle
 10
116.7126273360765
 20
100.01058779728
 30
0.0
 40
1.200000000000003
  0
CIRCLE
  5
19D
330
1C9
100
AcDbEntity
  8
1
 62
     7
100
AcDbCircle
 10
107.1863478944477
 20
105.51058779728
 30
0.0
 40
5.5
  0
CIRCLE
  5
19E
330
1C9
100
AcDbEntity
  8
1
 62
     7
100
AcDbCircle
 10
107.1863478944477
 20
105.51058779728
 30
0.0
 40
13.25
  0
CIRCLE
  5
19F
330
1C9
100
AcDbEntity
  8
1
 62
     7
100
AcDbCircle
 10
107.1863478944477
 20
105.51058779728
 30
0.0
 40
7.5
  0
CIRCLE
  5
1A0
330
1C9
100
AcDbEntity
  8
1
 62
     7
100
AcDbCircle
 10
107.1868003589129
 20
105.5098628201869
 30
0.0
 40
17.65000000000009
  0
TEXT
  5
1A1
330
1C9
100
AcDbEntity
  8
1
 62
     7
100
AcDbText
 10
-148.151798934969
 20
169.883975246222
 30
0.0
 40
3.5
  1
AMC 2.5
 41
0.9
  7
SIMPLEX
100
AcDbText
  0
ENDSEC
  0
SECTION
  2
OBJECTS
  0
DICTIONARY
  5
1B5
330
0
100
AcDbDictionary
281
     1
  3
ACAD_COLOR
350
1C4
  3
ACAD_GROUP
350
1B6
  3
ACAD_LAYOUT
350
1C2
  3
ACAD_MATERIAL
350
1C3
  3
ACAD_MLINESTYLE
350
1BF
  3
ACAD_PLOTSETTINGS
350
1C1
  3
ACAD_PLOTSTYLENAME
350
1B7
  0
DICTIONARY
  5
1C4
102
{ACAD_REACTORS
330
1B5
102
}
330
1B5
100
AcDbDictionary
281
     1
  0
DICTIONARY
  5
1B6
102
{ACAD_REACTORS
330
1B5
102
}
330
1B5
100
AcDbDictionary
281
     1
  0
DICTIONARY
  5
1C2
102
{ACAD_REACTORS
330
1B5
102
}
330
1B5
100
AcDbDictionary
281
     1
  3
Layout1
350
1C8
  3
Model
350
1CC
  0
DICTIONARY
  5
1C3
102
{ACAD_REACTORS
330
1B5
102
}
330
1B5
100
AcDbDictionary
281
     1
  0
DICTIONARY
  5
1BF
102
{ACAD_REACTORS
330
1B5
102
}
330
1B5
100
AcDbDictionary
281
     1
  3
Standard
350
1C0
  0
DICTIONARY
  5
1C1
102
{ACAD_REACTORS
330
1B5
102
}
330
1B5
100
AcDbDictionary
281
     1
  0
ACDBDICTIONARYWDFLT
  5
1B7
102
{ACAD_REACTORS
330
1B5
102
}
330
1B5
100
AcDbDictionary
281
     1
  3
Normal
350
1B8
100
AcDbDictionaryWithDefault
340
1B8
  0
LAYOUT
  5
1C8
102
{ACAD_REACTORS
330
1C2
102
}
330
1C2
100
AcDbPlotSettings
  1

  2
Microsoft Office Document Image Writer
  4

  6

 40
0.0
 41
0.0
 42
0.0
 43
0.0
 44
0.0
 45
0.0
 46
0.0
 47
0.0
 48
0.0
 49
0.0
140
0.0
141
0.0
142
1.0
143
1.0
 70
   688
 72
     0
 73
     0
 74
     5
  7

 75
    16
147
1.0
 76
     0
 77
     2
 78
   300
148
0.0
149
0.0
100
AcDbLayout
  1
Layout1
 70
     1
 71
     1
 10
0.0
 20
0.0
 11
12.0
 21
9.0
 12
0.0
 22
0.0
 32
0.0
 14
1.000000000000000E+20
 24
1.000000000000000E+20
 34
1.000000000000000E+20
 15
-1.000000000000000E+20
 25
-1.000000000000000E+20
 35
-1.000000000000000E+20
146
0.0
 13
0.0
 23
0.0
 33
0.0
 16
1.0
 26
0.0
 36
0.0
 17
0.0
 27
1.0
 37
0.0
 76
     0
330
1C5
  0
LAYOUT
  5
1CC
102
{ACAD_REACTORS
330
1C2
102
}
330
1C2
100
AcDbPlotSettings
  1

  2
Microsoft Office Document Image Writer
  4

  6

 40
0.0
 41
0.0
 42
0.0
 43
0.0
 44
0.0
 45
0.0
 46
0.0
 47
0.0
 48
0.0
 49
0.0
140
0.0
141
0.0
142
1.0
143
1.0
 70
  1712
 72
     0
 73
     0
 74
     0
  7

 75
     0
147
1.0
 76
     0
 77
     2
 78
   300
148
0.0
149
0.0
100
AcDbLayout
  1
Model
 70
     1
 71
     0
 10
0.0
 20
0.0
 11
12.0
 21
9.0
 12
0.0
 22
0.0
 32
0.0
 14
0.0
 24
0.0
 34
0.0
 15
0.0
 25
0.0
 35
0.0
146
0.0
 13
0.0
 23
0.0
 33
0.0
 16
1.0
 26
0.0
 36
0.0
 17
0.0
 27
1.0
 37
0.0
 76
     0
330
1C9
  0
MLINESTYLE
  5
1C0
102
{ACAD_REACTORS
330
1BF
102
}
330
1BF
100
AcDbMlineStyle
  2
STANDARD
 70
     0
  3

 62
   256
 51
90.0
 52
90.0
 71
     2
 49
0.5
 62
   256
  6
BYLAYER
 49
-0.5
 62
   256
  6
BYLAYER
  0
ACDBPLACEHOLDER
  5
1B8
102
{ACAD_REACTORS
330
1B7
102
}
330
1B7
  0
ENDSEC
  0
EOF
