  0
SECTION
  2
HEADER
  9
$ACADVER
  1
AC1018
  9
$ACADMAINTVER
 70
     0
  9
$DWGCODEPAGE
  3
ANSI_932
  9
$INSBASE
 10
0.0
 20
0.0
 30
0.0
  9
$EXTMIN
 10
-53.07175014375104
 20
-46.00378235136287
 30
-0.0015258207003583
  9
$EXTMAX
 10
334.0118256639191
 20
77.95332884176684
 30
0.0000000349246037
  9
$LIMMIN
 10
-53.47379294579571
 20
-46.0
  9
$LIMMAX
 10
334.0000000000001
 20
77.94954591321901
  9
$ORTHOMODE
 70
     0
  9
$REGENMODE
 70
     1
  9
$FILLMODE
 70
     1
  9
$QTEXTMODE
 70
     0
  9
$MIRRTEXT
 70
     1
  9
$LTSCALE
 40
1.0
  9
$ATTMODE
 70
     1
  9
$TEXTSIZE
 40
3.5
  9
$TRACEWID
 40
0.5
  9
$TEXTSTYLE
  7
STANDARD
  9
$CLAYER
  8
0
  9
$CELTYPE
  6
ByLayer
  9
$CECOLOR
 62
   256
  9
$CELTSCALE
 40
1.0
  9
$DISPSILH
 70
     0
  9
$DIMSCALE
 40
1.0
  9
$DIMASZ
 40
0.18
  9
$DIMEXO
 40
0.0625
  9
$DIMDLI
 40
0.38
  9
$DIMRND
 40
0.0
  9
$DIMDLE
 40
0.0
  9
$DIMEXE
 40
0.18
  9
$DIMTP
 40
0.0
  9
$DIMTM
 40
0.0
  9
$DIMTXT
 40
0.18
  9
$DIMCEN
 40
0.09
  9
$DIMTSZ
 40
0.0
  9
$DIMTOL
 70
     0
  9
$DIMLIM
 70
     0
  9
$DIMTIH
 70
     1
  9
$DIMTOH
 70
     1
  9
$DIMSE1
 70
     0
  9
$DIMSE2
 70
     0
  9
$DIMTAD
 70
     0
  9
$DIMZIN
 70
     0
  9
$DIMBLK
  1

  9
$DIMASO
 70
     1
  9
$DIMSHO
 70
     1
  9
$DIMPOST
  1

  9
$DIMAPOST
  1

  9
$DIMALT
 70
     0
  9
$DIMALTD
 70
     2
  9
$DIMALTF
 40
25.4
  9
$DIMLFAC
 40
1.0
  9
$DIMTOFL
 70
     0
  9
$DIMTVP
 40
0.0
  9
$DIMTIX
 70
     0
  9
$DIMSOXD
 70
     0
  9
$DIMSAH
 70
     0
  9
$DIMBLK1
  1

  9
$DIMBLK2
  1

  9
$DIMSTYLE
  2
STANDARD
  9
$DIMCLRD
 70
     0
  9
$DIMCLRE
 70
     0
  9
$DIMCLRT
 70
     0
  9
$DIMTFAC
 40
1.0
  9
$DIMGAP
 40
0.09
  9
$DIMJUST
 70
     0
  9
$DIMSD1
 70
     0
  9
$DIMSD2
 70
     0
  9
$DIMTOLJ
 70
     1
  9
$DIMTZIN
 70
     0
  9
$DIMALTZ
 70
     0
  9
$DIMALTTZ
 70
     0
  9
$DIMUPT
 70
     0
  9
$DIMDEC
 70
     4
  9
$DIMTDEC
 70
     4
  9
$DIMALTU
 70
     2
  9
$DIMALTTD
 70
     2
  9
$DIMTXSTY
  7
STANDARD
  9
$DIMAUNIT
 70
     0
  9
$DIMADEC
 70
     0
  9
$DIMALTRND
 40
0.0
  9
$DIMAZIN
 70
     0
  9
$DIMDSEP
 70
    46
  9
$DIMATFIT
 70
     3
  9
$DIMFRAC
 70
     0
  9
$DIMLDRBLK
  1

  9
$DIMLUNIT
 70
     2
  9
$DIMLWD
 70
    -2
  9
$DIMLWE
 70
    -2
  9
$DIMTMOVE
 70
     0
  9
$LUNITS
 70
     2
  9
$LUPREC
 70
     4
  9
$SKETCHINC
 40
0.1
  9
$FILLETRAD
 40
2.0
  9
$AUNITS
 70
     0
  9
$AUPREC
 70
     0
  9
$MENU
  1
ACAD
  9
$ELEVATION
 40
0.0
  9
$PELEVATION
 40
0.0
  9
$THICKNESS
 40
0.0
  9
$LIMCHECK
 70
     0
  9
$CHAMFERA
 40
0.0
  9
$CHAMFERB
 40
0.0
  9
$CHAMFERC
 40
0.0
  9
$CHAMFERD
 40
0.0
  9
$SKPOLY
 70
     0
  9
$TDCREATE
 40
2452095.114544444
  9
$TDUCREATE
 40
2452095.281211111
  9
$TDUPDATE
 40
2453209.453490984
  9
$TDUUPDATE
 40
2453209.620157651
  9
$TDINDWG
 40
0.0004282755
  9
$TDUSRTIMER
 40
0.0004282755
  9
$USRTIMER
 70
     1
  9
$ANGBASE
 50
0.0
  9
$ANGDIR
 70
     0
  9
$PDMODE
 70
     0
  9
$PDSIZE
 40
0.0
  9
$PLINEWID
 40
0.0
  9
$SPLFRAME
 70
     0
  9
$SPLINETYPE
 70
     6
  9
$SPLINESEGS
 70
     8
  9
$HANDSEED
  5
12C
  9
$SURFTAB1
 70
     6
  9
$SURFTAB2
 70
     6
  9
$SURFTYPE
 70
     6
  9
$SURFU
 70
     6
  9
$SURFV
 70
     6
  9
$UCSBASE
  2

  9
$UCSNAME
  2

  9
$UCSORG
 10
0.0
 20
0.0
 30
0.0
  9
$UCSXDIR
 10
1.0
 20
0.0
 30
0.0
  9
$UCSYDIR
 10
0.0
 20
1.0
 30
0.0
  9
$UCSORTHOREF
  2

  9
$UCSORTHOVIEW
 70
     0
  9
$UCSORGTOP
 10
0.0
 20
0.0
 30
0.0
  9
$UCSORGBOTTOM
 10
0.0
 20
0.0
 30
0.0
  9
$UCSORGLEFT
 10
0.0
 20
0.0
 30
0.0
  9
$UCSORGRIGHT
 10
0.0
 20
0.0
 30
0.0
  9
$UCSORGFRONT
 10
0.0
 20
0.0
 30
0.0
  9
$UCSORGBACK
 10
0.0
 20
0.0
 30
0.0
  9
$PUCSBASE
  2

  9
$PUCSNAME
  2

  9
$PUCSORG
 10
0.0
 20
0.0
 30
0.0
  9
$PUCSXDIR
 10
1.0
 20
0.0
 30
0.0
  9
$PUCSYDIR
 10
0.0
 20
1.0
 30
0.0
  9
$PUCSORTHOREF
  2

  9
$PUCSORTHOVIEW
 70
     0
  9
$PUCSORGTOP
 10
0.0
 20
0.0
 30
0.0
  9
$PUCSORGBOTTOM
 10
0.0
 20
0.0
 30
0.0
  9
$PUCSORGLEFT
 10
0.0
 20
0.0
 30
0.0
  9
$PUCSORGRIGHT
 10
0.0
 20
0.0
 30
0.0
  9
$PUCSORGFRONT
 10
0.0
 20
0.0
 30
0.0
  9
$PUCSORGBACK
 10
0.0
 20
0.0
 30
0.0
  9
$USERI1
 70
     0
  9
$USERI2
 70
     0
  9
$USERI3
 70
     0
  9
$USERI4
 70
     0
  9
$USERI5
 70
     0
  9
$USERR1
 40
0.0
  9
$USERR2
 40
0.0
  9
$USERR3
 40
0.0
  9
$USERR4
 40
0.0
  9
$USERR5
 40
0.0
  9
$WORLDVIEW
 70
     1
  9
$SHADEDGE
 70
     3
  9
$SHADEDIF
 70
    70
  9
$TILEMODE
 70
     1
  9
$MAXACTVP
 70
    64
  9
$PINSBASE
 10
0.0
 20
0.0
 30
0.0
  9
$PLIMCHECK
 70
     0
  9
$PEXTMIN
 10
1.000000000000000E+20
 20
1.000000000000000E+20
 30
1.000000000000000E+20
  9
$PEXTMAX
 10
-1.000000000000000E+20
 20
-1.000000000000000E+20
 30
-1.000000000000000E+20
  9
$PLIMMIN
 10
0.0
 20
0.0
  9
$PLIMMAX
 10
12.0
 20
9.0
  9
$UNITMODE
 70
     0
  9
$VISRETAIN
 70
     1
  9
$PLINEGEN
 70
     0
  9
$PSLTSCALE
 70
     1
  9
$TREEDEPTH
 70
  3020
  9
$CMLSTYLE
  2
Standard
  9
$CMLJUST
 70
     0
  9
$CMLSCALE
 40
1.0
  9
$PROXYGRAPHICS
 70
     1
  9
$MEASUREMENT
 70
     0
  9
$CELWEIGHT
370
    -1
  9
$ENDCAPS
280
     0
  9
$JOINSTYLE
280
     0
  9
$LWDISPLAY
290
     0
  9
$INSUNITS
 70
     0
  9
$HYPERLINKBASE
  1

  9
$STYLESHEET
  1

  9
$XEDIT
290
     1
  9
$CEPSNTYPE
380
     0
  9
$PSTYLEMODE
290
     1
  9
$FINGERPRINTGUID
  2
{8A93D766-1C54-4C2F-930A-B110B859F0D4}
  9
$VERSIONGUID
  2
{C4CF0D72-7B47-4DB9-9343-7D449327A4AA}
  9
$EXTNAMES
290
     1
  9
$PSVPSCALE
 40
0.0
  9
$OLESTARTUP
290
     0
  9
$SORTENTS
280
   127
  9
$INDEXCTL
280
     0
  9
$HIDETEXT
280
     0
  9
$XCLIPFRAME
290
     0
  9
$HALOGAP
280
     0
  9
$OBSCOLOR
 70
   257
  9
$OBSLTYPE
280
     0
  9
$INTERSECTIONDISPLAY
280
     0
  9
$INTERSECTIONCOLOR
 70
   257
  9
$DIMASSOC
280
     1
  9
$PROJECTNAME
  1

  0
ENDSEC
  0
SECTION
  2
CLASSES
  0
CLASS
  1
ACDBDICTIONARYWDFLT
  2
AcDbDictionaryWithDefault
  3
ObjectDBX Classes
 90
        0
 91
        1
280
     0
281
     0
  0
ENDSEC
  0
SECTION
  2
TABLES
  0
TABLE
  2
VPORT
  5
F9
330
0
100
AcDbSymbolTable
 70
     2
  0
VPORT
  5
12B
330
F9
100
AcDbSymbolTableRecord
100
AcDbViewportTableRecord
  2
*Active
 70
     0
 10
0.0
 20
0.0
 11
1.0
 21
1.0
 12
140.470037760084
 22
15.97477324520198
 13
0.0
 23
0.0
 14
1.0
 24
1.0
 15
0.0
 25
0.0
 16
0.0
 26
0.0
 36
1.0
 17
0.0
 27
0.0
 37
0.0
 40
239.5278746805055
 41
1.625
 42
50.0
 43
0.0
 44
0.0
 50
0.0
 51
0.0
 71
     0
 72
   100
 73
     1
 74
     1
 75
     0
 76
     0
 77
     0
 78
     0
281
     0
 65
     1
110
0.0
120
0.0
130
0.0
111
1.0
121
0.0
131
0.0
112
0.0
122
1.0
132
0.0
 79
     0
146
0.0
  0
ENDTAB
  0
TABLE
  2
LTYPE
  5
F6
330
0
100
AcDbSymbolTable
 70
     9
  0
LTYPE
  5
104
330
F6
100
AcDbSymbolTableRecord
100
AcDbLinetypeTableRecord
  2
ByBlock
 70
     0
  3

 72
    65
 73
     0
 40
0.0
  0
LTYPE
  5
105
330
F6
100
AcDbSymbolTableRecord
100
AcDbLinetypeTableRecord
  2
ByLayer
 70
     0
  3

 72
    65
 73
     0
 40
0.0
  0
LTYPE
  5
106
330
F6
100
AcDbSymbolTableRecord
100
AcDbLinetypeTableRecord
  2
CONTINUOUS
 70
     0
  3
Solid line
 72
    65
 73
     0
 40
0.0
  0
LTYPE
  5
116
330
F6
100
AcDbSymbolTableRecord
100
AcDbLinetypeTableRecord
  2
BORDER
 70
     0
  3
__ __ . __ __ .
 72
    65
 73
     6
 40
17.84418783303006
 49
5.098339380865735
 74
     0
 49
-2.549169690432865
 74
     0
 49
5.098339380865735
 74
     0
 49
-2.549169690432865
 74
     0
 49
0.0
 74
     0
 49
-2.549169690432865
 74
     0
  0
LTYPE
  5
117
330
F6
100
AcDbSymbolTableRecord
100
AcDbLinetypeTableRecord
  2
CENTER
 70
     0
  3
____ _ ____ _
 72
    65
 73
     4
 40
20.39335752346294
 49
12.74584845216434
 74
     0
 49
-2.549169690432865
 74
     0
 49
2.549169690432865
 74
     0
 49
-2.549169690432865
 74
     0
  0
LTYPE
  5
118
330
F6
100
AcDbSymbolTableRecord
100
AcDbLinetypeTableRecord
  2
DASHDOT
 70
     0
  3
__ . __ . __ .
 72
    65
 73
     4
 40
10.19667876173147
 49
5.098339380865735
 74
     0
 49
-2.549169690432865
 74
     0
 49
0.0
 74
     0
 49
-2.549169690432865
 74
     0
  0
LTYPE
  5
119
330
F6
100
AcDbSymbolTableRecord
100
AcDbLinetypeTableRecord
  2
DASHED
 70
     0
  3
__ __ __ __ __
 72
    65
 73
     2
 40
7.647509071298602
 49
5.098339380865735
 74
     0
 49
-2.549169690432865
 74
     0
  0
LTYPE
  5
11A
330
F6
100
AcDbSymbolTableRecord
100
AcDbLinetypeTableRecord
  2
DIVIDE
 70
     0
  3
__ . . __ . . 
 72
    65
 73
     6
 40
12.74584845216434
 49
5.098339380865735
 74
     0
 49
-2.549169690432865
 74
     0
 49
0.0
 74
     0
 49
-2.549169690432865
 74
     0
 49
0.0
 74
     0
 49
-2.549169690432865
 74
     0
  0
LTYPE
  5
11B
330
F6
100
AcDbSymbolTableRecord
100
AcDbLinetypeTableRecord
  2
DOT
 70
     0
  3
..............
 72
    65
 73
     4
 40
5.098339380865735
 49
0.0
 74
     0
 49
-2.549169690432865
 74
     0
 49
0.0
 74
     0
 49
-2.549169690432865
 74
     0
  0
LTYPE
  5
11C
330
F6
100
AcDbSymbolTableRecord
100
AcDbLinetypeTableRecord
  2
HIDDEN
 70
     0
  3
_ _ _ _ _ _ _
 72
    65
 73
     2
 40
3.823754535649301
 49
2.549169690432865
 74
     0
 49
-1.274584845216433
 74
     0
  0
LTYPE
  5
11D
330
F6
100
AcDbSymbolTableRecord
100
AcDbLinetypeTableRecord
  2
PHANTOM
 70
     0
  3
_____ _ _ _____ _ _ 
 72
    65
 73
     6
 40
25.49169690432867
 49
12.74584845216434
 74
     0
 49
-2.549169690432865
 74
     0
 49
2.549169690432865
 74
     0
 49
-2.549169690432865
 74
     0
 49
2.549169690432865
 74
     0
 49
-2.549169690432865
 74
     0
  0
ENDTAB
  0
TABLE
  2
LAYER
  5
F3
330
0
100
AcDbSymbolTable
 70
     2
  0
LAYER
  5
101
330
F3
100
AcDbSymbolTableRecord
100
AcDbLayerTableRecord
  2
0
 70
     0
 62
     7
  6
CONTINUOUS
370
    -3
390
100
  0
LAYER
  5
11E
330
F3
100
AcDbSymbolTableRecord
100
AcDbLayerTableRecord
  2
1
 70
     0
 62
     7
  6
CONTINUOUS
370
    -3
390
100
  0
ENDTAB
  0
TABLE
  2
STYLE
  5
F4
330
0
100
AcDbSymbolTable
 70
     4
  0
STYLE
  5
102
330
F4
100
AcDbSymbolTableRecord
100
AcDbTextStyleTableRecord
  2
STANDARD
 70
     0
 40
0.0
 41
1.0
 50
0.0
 71
     0
 42
3.5
  3
txt
  4

  0
STYLE
  5
11F
330
F4
100
AcDbSymbolTableRecord
100
AcDbTextStyleTableRecord
  2
SIMPLEX
 70
     0
 40
0.0
 41
1.0
 50
0.0
 71
     0
 42
3.5
  3
simplex
  4

  0
STYLE
  5
120
330
F4
100
AcDbSymbolTableRecord
100
AcDbTextStyleTableRecord
  2
COMPLEX
 70
     0
 40
0.0
 41
1.0
 50
0.0
 71
     0
 42
3.5
  3
complex
  4

  0
STYLE
  5
121
330
F4
100
AcDbSymbolTableRecord
100
AcDbTextStyleTableRecord
  2
ITALIC
 70
     0
 40
0.0
 41
1.0
 50
0.0
 71
     0
 42
3.5
  3
italic
  4

  0
ENDTAB
  0
TABLE
  2
VIEW
  5
F7
330
0
100
AcDbSymbolTable
 70
     0
  0
ENDTAB
  0
TABLE
  2
UCS
  5
F8
330
0
100
AcDbSymbolTable
 70
     0
  0
ENDTAB
  0
TABLE
  2
APPID
  5
FA
330
0
100
AcDbSymbolTable
 70
     1
  0
APPID
  5
103
330
FA
100
AcDbSymbolTableRecord
100
AcDbRegAppTableRecord
  2
ACAD
 70
     0
  0
ENDTAB
  0
TABLE
  2
DIMSTYLE
  5
FB
330
0
100
AcDbSymbolTable
 70
     1
100
AcDbDimStyleTable
 71
     0
  0
DIMSTYLE
105
122
330
FB
100
AcDbSymbolTableRecord
100
AcDbDimStyleTableRecord
  2
STANDARD
 70
     0
279
     2
340
102
  0
ENDTAB
  0
TABLE
  2
BLOCK_RECORD
  5
F2
330
0
100
AcDbSymbolTable
 70
     2
  0
BLOCK_RECORD
  5
111
330
F2
100
AcDbSymbolTableRecord
100
AcDbBlockTableRecord
  2
*Model_Space
340
114
  0
BLOCK_RECORD
  5
10D
330
F2
100
AcDbSymbolTableRecord
100
AcDbBlockTableRecord
  2
*Paper_Space
340
110
  0
BLOCK_RECORD
  5
127
330
F2
100
AcDbSymbolTableRecord
100
AcDbBlockTableRecord
  2
$MODEL_SPACE
340
0
  0
BLOCK_RECORD
  5
129
330
F2
100
AcDbSymbolTableRecord
100
AcDbBlockTableRecord
  2
$PAPER_SPACE
340
0
  0
ENDTAB
  0
ENDSEC
  0
SECTION
  2
BLOCKS
  0
BLOCK
  5
112
330
111
100
AcDbEntity
  8
0
100
AcDbBlockBegin
  2
*Model_Space
 70
     0
 10
0.0
 20
0.0
 30
0.0
  3
*Model_Space
  1

  0
ENDBLK
  5
113
330
111
100
AcDbEntity
  8
0
100
AcDbBlockEnd
  0
BLOCK
  5
10E
330
10D
100
AcDbEntity
 67
     1
  8
0
100
AcDbBlockBegin
  2
*Paper_Space
 70
     0
 10
0.0
 20
0.0
 30
0.0
  3
*Paper_Space
  1

  0
ENDBLK
  5
10F
330
10D
100
AcDbEntity
 67
     1
  8
0
100
AcDbBlockEnd
  0
BLOCK
  5
128
330
127
100
AcDbEntity
  8
0
100
AcDbBlockBegin
  2
$MODEL_SPACE
 70
     0
 10
0.0
 20
0.0
 30
0.0
  3
$MODEL_SPACE
  1

  0
ENDBLK
  5
20
330
127
100
AcDbEntity
  8
0
100
AcDbBlockEnd
  0
BLOCK
  5
12A
330
129
100
AcDbEntity
  8
0
100
AcDbBlockBegin
  2
$PAPER_SPACE
 70
     0
 10
0.0
 20
0.0
 30
0.0
  3
$PAPER_SPACE
  1

  0
ENDBLK
  5
1C
330
129
100
AcDbEntity
  8
0
100
AcDbBlockEnd
  0
ENDSEC
  0
SECTION
  2
ENTITIES
  0
LINE
  5
33
330
111
100
AcDbEntity
  8
1
 62
     7
100
AcDbLine
 10
113.0000000000001
 20
-17.5
 30
0.0
 11
113.0000000000001
 21
17.5
 31
0.0
  0
LINE
  5
34
330
111
100
AcDbEntity
  8
1
  6
DASHDOT
 62
     3
100
AcDbLine
 10
286.5000000000001
 20
0.0
 30
0.0
 11
289.5
 21
0.0
 31
0.0
  0
LINE
  5
35
330
111
100
AcDbEntity
  8
1
  6
DASHDOT
 62
     3
100
AcDbLine
 10
288.0000000000001
 20
1.5
 30
0.0
 11
288.0000000000001
 21
-1.499999999999992
 31
0.0
  0
LINE
  5
36
330
111
100
AcDbEntity
  8
1
  6
DASHDOT
 62
     3
100
AcDbLine
 10
319.2894750675049
 20
31.28947506750474
 30
0.0
 11
314.6932809897923
 21
26.69328098979217
 31
0.0
  0
LINE
  5
37
330
111
100
AcDbEntity
  8
1
  6
DASHDOT
 62
     3
100
AcDbLine
 10
256.7105249324953
 20
31.28947506750472
 30
0.0
 11
261.3067190102078
 21
26.69328098979217
 31
0.0
  0
LINE
  5
38
330
111
100
AcDbEntity
  8
1
  6
DASHDOT
 62
     3
100
AcDbLine
 10
256.7105249324954
 20
-31.28947506750476
 30
0.0
 11
261.306719010208
 21
-26.6932809897922
 31
0.0
  0
LINE
  5
39
330
111
100
AcDbEntity
  8
1
  6
DASHDOT
 62
     3
100
AcDbLine
 10
319.2894750675049
 20
-31.28947506750472
 30
0.0
 11
314.6932809897923
 21
-26.69328098979217
 31
0.0
  0
LINE
  5
3A
330
111
100
AcDbEntity
  8
1
 62
     7
100
AcDbLine
 10
-2.397915761656349
 20
5.5
 30
0.0
 11
2.397915761656349
 21
5.5
 31
0.0
  0
LINE
  5
3B
330
111
100
AcDbEntity
  8
1
 62
     7
100
AcDbLine
 10
146.0
 20
35.16997290656098
 30
0.0
 11
146.0
 21
34.5
 31
0.0
  0
LINE
  5
3C
330
111
100
AcDbEntity
  8
1
 62
     7
100
AcDbLine
 10
140.0
 20
35.16997290656098
 30
0.0
 11
146.0
 21
35.16997290656098
 31
0.0
  0
LINE
  5
3D
330
111
100
AcDbEntity
  8
1
 62
     7
100
AcDbLine
 10
140.0
 20
35.16997290656098
 30
0.0
 11
140.0
 21
34.5
 31
0.0
  0
LINE
  5
3E
330
111
100
AcDbEntity
  8
1
 62
     7
100
AcDbLine
 10
289.8400000000003
 20
65.0
 30
0.0
 11
289.8400000000003
 21
45.9554264895021
 31
0.0
  0
LINE
  5
3F
330
111
100
AcDbEntity
  8
1
 62
     7
100
AcDbLine
 10
155.0
 20
34.5
 30
0.0
 11
170.0
 21
34.5
 31
0.0
  0
LINE
  5
40
330
111
100
AcDbEntity
  8
1
 62
     7
100
AcDbLine
 10
155.0
 20
46.0
 30
0.0
 11
155.0
 21
-46.0
 31
0.0
  0
LINE
  5
41
330
111
100
AcDbEntity
  8
1
 62
     7
100
AcDbLine
 10
151.0
 20
46.0
 30
0.0
 11
155.0
 21
46.0
 31
0.0
  0
LINE
  5
42
330
111
100
AcDbEntity
  8
1
 62
     7
100
AcDbLine
 10
151.0
 20
46.0
 30
0.0
 11
151.0
 21
-46.0
 31
0.0
  0
LINE
  5
43
330
111
100
AcDbEntity
  8
1
 62
     7
100
AcDbLine
 10
119.0
 20
34.5
 30
0.0
 11
151.0
 21
34.5
 31
0.0
  0
LINE
  5
44
330
111
100
AcDbEntity
  8
1
 62
     7
100
AcDbLine
 10
151.0
 20
-34.5
 30
0.0
 11
119.0
 21
-34.50000000000001
 31
0.0
  0
LINE
  5
45
330
111
100
AcDbEntity
  8
1
 62
     7
100
AcDbLine
 10
155.0
 20
-46.0
 30
0.0
 11
151.0
 21
-46.0
 31
0.0
  0
LINE
  5
46
330
111
100
AcDbEntity
  8
1
 62
     7
100
AcDbLine
 10
170.0
 20
-34.50000000000001
 30
0.0
 11
155.0
 21
-34.5
 31
0.0
  0
LINE
  5
47
330
111
100
AcDbEntity
  8
1
 62
     7
100
AcDbLine
 10
111.0
 20
-17.5
 30
0.0
 11
111.0
 21
17.5
 31
0.0
  0
LINE
  5
48
330
111
100
AcDbEntity
  8
1
 62
     7
100
AcDbLine
 10
117.5
 20
-17.5
 30
0.0
 11
111.0
 21
-17.5
 31
0.0
  0
LINE
  5
49
330
111
100
AcDbEntity
  8
1
 62
     7
100
AcDbLine
 10
111.0
 20
17.5
 30
0.0
 11
117.5
 21
17.5
 31
0.0
  0
LINE
  5
4A
330
111
100
AcDbEntity
  8
1
 62
     3
100
AcDbLine
 10
106.0
 20
2.397915761656359
 30
0.0
 11
85.99999999999996
 21
-2.397915761656356
 31
0.0
  0
LINE
  5
4B
330
111
100
AcDbEntity
  8
1
 62
     3
100
AcDbLine
 10
85.99999999999996
 20
2.397915761656356
 30
0.0
 11
106.0
 21
-2.397915761656357
 31
0.0
  0
LINE
  5
4C
330
111
100
AcDbEntity
  8
1
 62
     7
100
AcDbLine
 10
106.0
 20
-2.397915761656357
 30
0.0
 11
85.99999999999996
 21
-2.397915761656356
 31
0.0
  0
LINE
  5
4D
330
111
100
AcDbEntity
  8
1
 62
     7
100
AcDbLine
 10
106.0
 20
2.397915761656359
 30
0.0
 11
106.0
 21
-2.397915761656357
 31
0.0
  0
LINE
  5
4E
330
111
100
AcDbEntity
  8
1
 62
     7
100
AcDbLine
 10
85.99999999999996
 20
2.397915761656356
 30
0.0
 11
106.0
 21
2.397915761656359
 31
0.0
  0
LINE
  5
4F
330
111
100
AcDbEntity
  8
1
 62
     3
100
AcDbLine
 10
202.0
 20
2.397915761656359
 30
0.0
 11
182.0
 21
-2.397915761656359
 31
0.0
  0
LINE
  5
50
330
111
100
AcDbEntity
  8
1
 62
     3
100
AcDbLine
 10
182.0
 20
2.397915761656359
 30
0.0
 11
202.0
 21
-2.397915761656359
 31
0.0
  0
LINE
  5
51
330
111
100
AcDbEntity
  8
1
 62
     7
100
AcDbLine
 10
182.0
 20
-2.397915761656359
 30
0.0
 11
202.0
 21
-2.397915761656359
 31
0.0
  0
LINE
  5
52
330
111
100
AcDbEntity
  8
1
 62
     7
100
AcDbLine
 10
182.0
 20
2.397915761656359
 30
0.0
 11
182.0
 21
-2.397915761656359
 31
0.0
  0
LINE
  5
53
330
111
100
AcDbEntity
  8
1
 62
     7
100
AcDbLine
 10
202.0
 20
2.397915761656359
 30
0.0
 11
182.0
 21
2.397915761656359
 31
0.0
  0
LINE
  5
54
330
111
100
AcDbEntity
  8
1
 62
     7
100
AcDbLine
 10
202.0
 20
-6.0
 30
0.0
 11
178.0000000000002
 21
-6.0
 31
0.0
  0
LINE
  5
55
330
111
100
AcDbEntity
  8
1
 62
     7
100
AcDbLine
 10
202.0
 20
5.5
 30
0.0
 11
202.0
 21
-6.0
 31
0.0
  0
LINE
  5
56
330
111
100
AcDbEntity
  8
1
 62
     7
100
AcDbLine
 10
182.0
 20
5.5
 30
0.0
 11
202.0
 21
5.5
 31
0.0
  0
LINE
  5
57
330
111
100
AcDbEntity
  8
1
 62
     7
100
AcDbLine
 10
182.0
 20
6.0
 30
0.0
 11
182.0
 21
5.5
 31
0.0
  0
LINE
  5
58
330
111
100
AcDbEntity
  8
1
 62
     7
100
AcDbLine
 10
178.0000000000002
 20
6.0
 30
0.0
 11
182.0
 21
6.0
 31
0.0
  0
LINE
  5
59
330
111
100
AcDbEntity
  8
1
 62
     7
100
AcDbLine
 10
110.0
 20
-6.0
 30
0.0
 11
86.0
 21
-6.0
 31
0.0
  0
LINE
  5
5A
330
111
100
AcDbEntity
  8
1
 62
     7
100
AcDbLine
 10
106.0
 20
5.999999999999999
 30
0.0
 11
110.0
 21
6.000000000000002
 31
0.0
  0
LINE
  5
5B
330
111
100
AcDbEntity
  8
1
 62
     7
100
AcDbLine
 10
106.0
 20
5.5
 30
0.0
 11
106.0
 21
5.999999999999999
 31
0.0
  0
LINE
  5
5C
330
111
100
AcDbEntity
  8
1
 62
     7
100
AcDbLine
 10
86.0
 20
5.5
 30
0.0
 11
106.0
 21
5.5
 31
0.0
  0
LINE
  5
5D
330
111
100
AcDbEntity
  8
1
 62
     7
100
AcDbLine
 10
86.0
 20
-6.0
 30
0.0
 11
86.0
 21
5.5
 31
0.0
  0
LINE
  5
5E
330
111
100
AcDbEntity
  8
1
 62
     7
100
AcDbLine
 10
171.0
 20
-27.0
 30
0.0
 11
177.0
 21
-27.0
 31
0.0
  0
LINE
  5
5F
330
111
100
AcDbEntity
  8
1
 62
     7
100
AcDbLine
 10
170.0
 20
-20.5
 30
0.0
 11
171.0
 21
-20.5
 31
0.0
  0
LINE
  5
60
330
111
100
AcDbEntity
  8
1
  6
DASHDOT
 62
     3
100
AcDbLine
 10
83.0
 20
0.0
 30
0.0
 11
86.0
 21
0.0
 31
0.0
  0
LINE
  5
61
330
111
100
AcDbEntity
  8
1
 62
     7
100
AcDbLine
 10
171.0
 20
20.5
 30
0.0
 11
170.0
 21
20.5
 31
0.0
  0
LINE
  5
62
330
111
100
AcDbEntity
  8
1
 62
     7
100
AcDbLine
 10
177.0
 20
27.0
 30
0.0
 11
171.0
 21
27.0
 31
0.0
  0
LINE
  5
63
330
111
100
AcDbEntity
  8
1
 62
     7
100
AcDbLine
 10
177.0000000000002
 20
8.000000000000012
 30
0.0
 11
178.0000000000002
 21
8.000000000000012
 31
0.0
  0
LINE
  5
64
330
111
100
AcDbEntity
  8
1
 62
     7
100
AcDbLine
 10
178.0000000000002
 20
8.000000000000012
 30
0.0
 11
178.0000000000002
 21
-8.95902676617583
 31
0.0
  0
LINE
  5
65
330
111
100
AcDbEntity
  8
1
 62
     7
100
AcDbLine
 10
178.0000000000002
 20
-8.95902676617583
 30
0.0
 11
177.0000000000002
 21
-8.95902676617583
 31
0.0
  0
LINE
  5
66
330
111
100
AcDbEntity
  8
1
 62
     7
100
AcDbLine
 10
111.0
 20
8.000000000000012
 30
0.0
 11
110.0
 21
8.000000000000012
 31
0.0
  0
LINE
  5
67
330
111
100
AcDbEntity
  8
1
 62
     7
100
AcDbLine
 10
110.0
 20
8.000000000000012
 30
0.0
 11
110.0
 21
-8.95902676617583
 31
0.0
  0
LINE
  5
68
330
111
100
AcDbEntity
  8
1
 62
     7
100
AcDbLine
 10
110.0
 20
-8.95902676617583
 30
0.0
 11
111.0
 21
-8.95902676617583
 31
0.0
  0
LINE
  5
69
330
111
100
AcDbEntity
  8
1
 62
     7
100
AcDbLine
 10
119.0
 20
19.70000000000004
 30
0.0
 11
117.5
 21
19.70000000000003
 31
0.0
  0
LINE
  5
6A
330
111
100
AcDbEntity
  8
1
 62
     7
100
AcDbLine
 10
117.5
 20
19.70000000000003
 30
0.0
 11
117.5
 21
-22.45164748669878
 31
0.0
  0
LINE
  5
6B
330
111
100
AcDbEntity
  8
1
 62
     7
100
AcDbLine
 10
117.5
 20
-22.45164748669878
 30
0.0
 11
119.0
 21
-22.45164748669878
 31
0.0
  0
LINE
  5
6C
330
111
100
AcDbEntity
  8
1
 62
     7
100
AcDbLine
 10
119.0
 20
34.5
 30
0.0
 11
119.0
 21
-34.50000000000001
 31
0.0
  0
LINE
  5
6D
330
111
100
AcDbEntity
  8
1
 62
     3
100
AcDbLine
 10
289.31
 20
65.0
 30
0.0
 11
289.31
 21
70.0
 31
0.0
  0
LINE
  5
6E
330
111
100
AcDbEntity
  8
1
 62
     3
100
AcDbLine
 10
288.53
 20
70.0
 30
0.0
 11
288.53
 21
65.0
 31
0.0
  0
LINE
  5
6F
330
111
100
AcDbEntity
  8
1
 62
     7
100
AcDbLine
 10
177.0
 20
27.0
 30
0.0
 11
177.0
 21
-27.0
 31
0.0
  0
LINE
  5
70
330
111
100
AcDbEntity
  8
1
  6
DASHDOT
 62
     3
100
AcDbLine
 10
288.0000000000001
 20
26.0
 30
0.0
 11
288.0000000000001
 21
20.0
 31
0.0
  0
LINE
  5
71
330
111
100
AcDbEntity
  8
1
  6
DASHDOT
 62
     3
100
AcDbLine
 10
288.0000000000001
 20
-25.99999999999992
 30
0.0
 11
288.0
 21
-20.00000000000003
 31
0.0
  0
LINE
  5
72
330
111
100
AcDbEntity
  8
1
  6
DASHDOT
 62
     3
100
AcDbLine
 10
314.0000000000001
 20
0.0000000000000351
 30
0.0
 11
308.0
 21
0.0000000000000401
 31
0.0
  0
LINE
  5
73
330
111
100
AcDbEntity
  8
1
 62
     3
100
AcDbLine
 10
286.6900000000003
 20
70.0
 30
0.0
 11
286.6900000000003
 21
65.0
 31
0.0
  0
LINE
  5
74
330
111
100
AcDbEntity
  8
1
 62
     7
100
AcDbLine
 10
286.1600000000001
 20
65.0
 30
0.0
 11
286.1600000000001
 21
45.95542648950213
 31
0.0
  0
LINE
  5
75
330
111
100
AcDbEntity
  8
1
 62
     7
100
AcDbLine
 10
288.0000000000001
 20
65.0
 30
0.0
 11
288.0000000000001
 21
46.0
 31
0.0
  0
LINE
  5
76
330
111
100
AcDbEntity
  8
1
 62
     7
100
AcDbLine
 10
143.9199999999999
 20
35.16997290656098
 30
0.0
 11
143.9199999999999
 21
65.0
 31
0.0
  0
LINE
  5
77
330
111
100
AcDbEntity
  8
1
 62
     7
100
AcDbLine
 10
142.08
 20
35.16997290656098
 30
0.0
 11
142.0799999999998
 21
65.0
 31
0.0
  0
LINE
  5
78
330
111
100
AcDbEntity
  8
1
 62
     7
100
AcDbLine
 10
170.0
 20
34.5
 30
0.0
 11
170.0
 21
-34.50000000000001
 31
0.0
  0
LINE
  5
79
330
111
100
AcDbEntity
  8
1
 62
     7
100
AcDbLine
 10
171.0
 20
-27.0
 30
0.0
 11
171.0
 21
27.0
 31
0.0
  0
LINE
  5
7A
330
111
100
AcDbEntity
  8
1
  6
DASHDOT
 62
     3
100
AcDbLine
 10
202.0
 20
0.0
 30
0.0
 11
205.0
 21
0.0
 31
0.0
  0
LINE
  5
7B
330
111
100
AcDbEntity
  8
1
 62
     7
100
AcDbLine
 10
286.1600000000001
 20
65.0
 30
0.0
 11
289.8400000000003
 21
65.0
 31
0.0
  0
LINE
  5
7C
330
111
100
AcDbEntity
  8
1
 62
     3
100
AcDbLine
 10
287.4700000000001
 20
70.0
 30
0.0
 11
287.4700000000001
 21
65.0
 31
0.0
  0
LINE
  5
7D
330
111
100
AcDbEntity
  8
1
 62
     7
100
AcDbLine
 10
143.9199999999999
 20
65.0
 30
0.0
 11
142.0799999999998
 21
65.0
 31
0.0
  0
LINE
  5
7E
330
111
100
AcDbEntity
  8
1
 62
     3
100
AcDbLine
 10
143.3899999999999
 20
70.0
 30
0.0
 11
143.3899999999999
 21
65.0
 31
0.0
  0
LINE
  5
7F
330
111
100
AcDbEntity
  8
1
 62
     3
100
AcDbLine
 10
142.61
 20
70.0
 30
0.0
 11
142.61
 21
65.0
 31
0.0
  0
LINE
  5
80
330
111
100
AcDbEntity
  8
1
 62
     7
100
AcDbLine
 10
1.84
 20
65.0
 30
0.0
 11
1.84
 21
35.16997290656098
 31
0.0
  0
LINE
  5
81
330
111
100
AcDbEntity
  8
1
 62
     3
100
AcDbLine
 10
1.31
 20
65.0
 30
0.0
 11
1.31
 21
70.0
 31
0.0
  0
LINE
  5
82
330
111
100
AcDbEntity
  8
1
 62
     3
100
AcDbLine
 10
0.5299999999999999
 20
70.0
 30
0.0
 11
0.5299999999999999
 21
65.0
 31
0.0
  0
LINE
  5
83
330
111
100
AcDbEntity
  8
1
 62
     7
100
AcDbLine
 10
5.5
 20
2.397915761656359
 30
0.0
 11
5.5
 21
-2.397915761656357
 31
0.0
  0
LINE
  5
84
330
111
100
AcDbEntity
  8
1
 62
     3
100
AcDbLine
 10
-1.310000000000004
 20
70.0
 30
0.0
 11
-1.310000000000004
 21
65.0
 31
0.0
  0
LINE
  5
85
330
111
100
AcDbEntity
  8
1
 62
     7
100
AcDbLine
 10
-1.84
 20
65.0
 30
0.0
 11
-1.84
 21
35.16997290656098
 31
0.0
  0
LINE
  5
86
330
111
100
AcDbEntity
  8
1
 62
     7
100
AcDbLine
 10
0.0
 20
65.0
 30
0.0
 11
0.0
 21
35.16997290656098
 31
0.0
  0
LINE
  5
87
330
111
100
AcDbEntity
  8
1
  6
DASHDOT
 62
     3
100
AcDbLine
 10
-1.5
 20
0.0
 30
0.0
 11
1.5
 21
0.0
 31
0.0
  0
LINE
  5
88
330
111
100
AcDbEntity
  8
1
  6
DASHDOT
 62
     3
100
AcDbLine
 10
0.0
 20
1.5
 30
0.0
 11
0.0
 21
-1.499999999999992
 31
0.0
  0
LINE
  5
89
330
111
100
AcDbEntity
  8
1
 62
     7
100
AcDbLine
 10
-1.84
 20
65.0
 30
0.0
 11
1.84
 21
65.0
 31
0.0
  0
LINE
  5
8A
330
111
100
AcDbEntity
  8
1
 62
     3
100
AcDbLine
 10
-0.5299999999999999
 20
70.0
 30
0.0
 11
-0.5299999999999999
 21
65.0
 31
0.0
  0
LINE
  5
8B
330
111
100
AcDbEntity
  8
1
 62
     7
100
AcDbLine
 10
-3.0
 20
35.16997290656098
 30
0.0
 11
3.0
 21
35.16997290656098
 31
0.0
  0
LINE
  5
8C
330
111
100
AcDbEntity
  8
1
 62
     7
100
AcDbLine
 10
3.0
 20
35.16997290656098
 30
0.0
 11
3.0
 21
34.3746859276655
 31
0.0
  0
LINE
  5
8D
330
111
100
AcDbEntity
  8
1
 62
     7
100
AcDbLine
 10
-3.0
 20
35.16997290656098
 30
0.0
 11
-3.0
 21
34.3746859276655
 31
0.0
  0
LINE
  5
8E
330
111
100
AcDbEntity
  8
1
 62
     7
100
AcDbLine
 10
285.6020842383438
 20
5.5
 30
0.0
 11
290.3979157616565
 21
5.5
 31
0.0
  0
LINE
  5
8F
330
111
100
AcDbEntity
  8
1
 62
     7
100
AcDbLine
 10
282.5000000000001
 20
-2.397915761656359
 30
0.0
 11
282.5000000000001
 21
2.397915761656359
 31
0.0
  0
LINE
  5
90
330
111
100
AcDbEntity
  8
1
 62
     7
100
AcDbLine
 10
283.8000000000001
 20
-7.059026766175831
 30
0.0
 11
283.8000000000001
 21
-6.084765791223411
 31
0.0
  0
LINE
  5
91
330
111
100
AcDbEntity
  8
1
 62
     7
100
AcDbLine
 10
285.6999999999999
 20
-8.95902676617583
 30
0.0
 11
287.3000000000001
 21
-8.95902676617583
 31
0.0
  0
LINE
  5
92
330
111
100
AcDbEntity
  8
1
 62
     7
100
AcDbLine
 10
287.3000000000001
 20
-5.95902676617583
 30
0.0
 11
287.3000000000001
 21
-8.95902676617583
 31
0.0
  0
LINE
  5
93
330
111
100
AcDbEntity
  8
1
 62
     7
100
AcDbLine
 10
288.7
 20
-8.95902676617583
 30
0.0
 11
288.7
 21
-5.95902676617583
 31
0.0
  0
LINE
  5
94
330
111
100
AcDbEntity
  8
1
 62
     7
100
AcDbLine
 10
288.7
 20
-8.95902676617583
 30
0.0
 11
290.3000000000001
 21
-8.95902676617583
 31
0.0
  0
LINE
  5
95
330
111
100
AcDbEntity
  8
1
 62
     7
100
AcDbLine
 10
292.2
 20
-6.084765791223411
 30
0.0
 11
292.2
 21
-7.059026766175831
 31
0.0
  0
LINE
  5
96
330
111
100
AcDbEntity
  8
1
  6
DASHDOT
 62
     3
100
AcDbLine
 10
262.0
 20
0.0000000000000016
 30
0.0
 11
268.0
 21
0.0000000000000012
 31
0.0
  0
LINE
  5
97
330
111
100
AcDbEntity
  8
1
  6
DASHDOT
 62
     3
100
AcDbLine
 10
31.28947506750479
 20
31.28947506750474
 30
0.0
 11
26.69328098979224
 21
26.69328098979217
 31
0.0
  0
LINE
  5
98
330
111
100
AcDbEntity
  8
1
  6
DASHDOT
 62
     3
100
AcDbLine
 10
31.28947506750479
 20
-31.28947506750472
 30
0.0
 11
26.69328098979224
 21
-26.69328098979217
 31
0.0
  0
LINE
  5
99
330
111
100
AcDbEntity
  8
1
  6
DASHDOT
 62
     3
100
AcDbLine
 10
-31.28947506750467
 20
-31.28947506750476
 30
0.0
 11
-26.69328098979219
 21
-26.6932809897922
 31
0.0
  0
LINE
  5
9A
330
111
100
AcDbEntity
  8
1
  6
DASHDOT
 62
     3
100
AcDbLine
 10
-31.28947506750479
 20
31.28947506750472
 30
0.0
 11
-26.6932809897923
 21
26.69328098979217
 31
0.0
  0
LINE
  5
9B
330
111
100
AcDbEntity
  8
1
 62
     7
100
AcDbLine
 10
-4.200000000000009
 20
-7.059026766175831
 30
0.0
 11
-4.200000000000009
 21
-6.084765791223411
 31
0.0
  0
LINE
  5
9C
330
111
100
AcDbEntity
  8
1
 62
     7
100
AcDbLine
 10
-2.300000000000002
 20
-8.95902676617583
 30
0.0
 11
-0.70000000000001
 21
-8.95902676617583
 31
0.0
  0
LINE
  5
9D
330
111
100
AcDbEntity
  8
1
 62
     7
100
AcDbLine
 10
-0.70000000000001
 20
-5.95902676617583
 30
0.0
 11
-0.70000000000001
 21
-8.95902676617583
 31
0.0
  0
LINE
  5
9E
330
111
100
AcDbEntity
  8
1
 62
     7
100
AcDbLine
 10
0.6999999999999959
 20
-8.95902676617583
 30
0.0
 11
0.6999999999999959
 21
-5.95902676617583
 31
0.0
  0
LINE
  5
9F
330
111
100
AcDbEntity
  8
1
 62
     7
100
AcDbLine
 10
0.6999999999999959
 20
-8.95902676617583
 30
0.0
 11
2.29999999999999
 21
-8.95902676617583
 31
0.0
  0
LINE
  5
A0
330
111
100
AcDbEntity
  8
1
 62
     7
100
AcDbLine
 10
4.199999999999993
 20
-6.084765791223411
 30
0.0
 11
4.199999999999993
 21
-7.059026766175831
 31
0.0
  0
LINE
  5
A1
330
111
100
AcDbEntity
  8
1
 62
     7
100
AcDbLine
 10
6.300000000000012
 20
-19.95164748669877
 30
0.0
 11
6.300000000000012
 21
-19.17385216811277
 31
0.0
  0
LINE
  5
A2
330
111
100
AcDbEntity
  8
1
 62
     7
100
AcDbLine
 10
1.30000000000001
 20
-22.45164748669878
 30
0.0
 11
3.80000000000001
 21
-22.45164748669878
 31
0.0
  0
LINE
  5
A3
330
111
100
AcDbEntity
  8
1
 62
     7
100
AcDbLine
 10
1.30000000000001
 20
-22.45164748669878
 30
0.0
 11
1.30000000000001
 21
-17.45164748669878
 31
0.0
  0
LINE
  5
A4
330
111
100
AcDbEntity
  8
1
 62
     7
100
AcDbLine
 10
-1.300000000000125
 20
-17.45164748669878
 30
0.0
 11
-1.300000000000125
 21
-22.45164748669878
 31
0.0
  0
LINE
  5
A5
330
111
100
AcDbEntity
  8
1
 62
     7
100
AcDbLine
 10
-3.800000000000124
 20
-22.45164748669878
 30
0.0
 11
-1.300000000000125
 21
-22.45164748669878
 31
0.0
  0
LINE
  5
A6
330
111
100
AcDbEntity
  8
1
 62
     7
100
AcDbLine
 10
-6.300000000000125
 20
-19.17385216811277
 30
0.0
 11
-6.300000000000125
 21
-19.95164748669877
 31
0.0
  0
LINE
  5
A7
330
111
100
AcDbEntity
  8
1
 62
     3
100
AcDbLine
 10
288.9200000000001
 20
65.0
 30
0.0
 11
288.9200000000001
 21
70.0
 31
0.0
  0
LINE
  5
A8
330
111
100
AcDbEntity
  8
1
 62
     3
100
AcDbLine
 10
287.08
 20
70.0
 30
0.0
 11
287.08
 21
65.0
 31
0.0
  0
LINE
  5
A9
330
111
100
AcDbEntity
  8
1
 62
     3
100
AcDbLine
 10
143.0
 20
70.0
 30
0.0
 11
143.0
 21
65.0
 31
0.0
  0
LINE
  5
AA
330
111
100
AcDbEntity
  8
1
 62
     3
100
AcDbLine
 10
0.9200000000000136
 20
65.0
 30
0.0
 11
0.9200000000000136
 21
70.0
 31
0.0
  0
LINE
  5
AB
330
111
100
AcDbEntity
  8
1
 62
     3
100
AcDbLine
 10
-0.9199999999999864
 20
70.0
 30
0.0
 11
-0.9199999999999864
 21
65.0
 31
0.0
  0
ARC
  5
AC
330
111
100
AcDbEntity
  8
1
 62
     7
100
AcDbCircle
 10
281.6000000000001
 20
-6.084765791223411
 30
0.0
 40
2.200000000000045
100
AcDbArc
 50
0.0
 51
47.0898159783239
  0
ARC
  5
AD
330
111
100
AcDbEntity
  8
1
 62
     7
100
AcDbCircle
 10
285.6999999999999
 20
-7.059026766175831
 30
0.0
 40
1.899999999999862
100
AcDbArc
 50
180.0
 51
270.0
  0
ARC
  5
AE
330
111
100
AcDbEntity
  8
1
 62
     7
100
AcDbCircle
 10
290.3000000000001
 20
-7.059026766175831
 30
0.0
 40
1.899999999999997
100
AcDbArc
 50
270.0
 51
0.0
  0
ARC
  5
AF
330
111
100
AcDbEntity
  8
1
 62
     7
100
AcDbCircle
 10
294.4
 20
-6.084765791223411
 30
0.0
 40
2.199999999999973
100
AcDbArc
 50
132.910184021675
 51
180.0
  0
ARC
  5
B0
330
111
100
AcDbEntity
  8
1
 62
     7
100
AcDbCircle
 10
-6.400000000000011
 20
-6.084765791223411
 30
0.0
 40
2.200000000000001
100
AcDbArc
 50
0.0
 51
47.08981597832408
  0
ARC
  5
B1
330
111
100
AcDbEntity
  8
1
 62
     7
100
AcDbCircle
 10
-2.300000000000002
 20
-7.059026766175831
 30
0.0
 40
1.900000000000004
100
AcDbArc
 50
180.0
 51
270.0
  0
ARC
  5
B2
330
111
100
AcDbEntity
  8
1
 62
     7
100
AcDbCircle
 10
2.29999999999999
 20
-7.059026766175831
 30
0.0
 40
1.899999999999997
100
AcDbArc
 50
270.0
 51
0.0
  0
ARC
  5
B3
330
111
100
AcDbEntity
  8
1
 62
     7
100
AcDbCircle
 10
6.399999999999997
 20
-6.084765791223411
 30
0.0
 40
2.2
100
AcDbArc
 50
132.910184021676
 51
180.0
  0
ARC
  5
B4
330
111
100
AcDbEntity
  8
1
 62
     7
100
AcDbCircle
 10
3.80000000000001
 20
-19.95164748669877
 30
0.0
 40
2.5
100
AcDbArc
 50
270.0
 51
0.0
  0
ARC
  5
B5
330
111
100
AcDbEntity
  8
1
 62
     7
100
AcDbCircle
 10
9.199999999999986
 20
-19.17385216811277
 30
0.0
 40
2.899999999999998
100
AcDbArc
 50
114.8403533014431
 51
180.0
  0
ARC
  5
B6
330
111
100
AcDbEntity
  8
1
 62
     7
100
AcDbCircle
 10
-9.200000000000098
 20
-19.17385216811277
 30
0.0
 40
2.899999999999975
100
AcDbArc
 50
0.0
 51
65.159646698557
  0
ARC
  5
B7
330
111
100
AcDbEntity
  8
1
 62
     7
100
AcDbCircle
 10
-3.800000000000124
 20
-19.95164748669877
 30
0.0
 40
2.5
100
AcDbArc
 50
180.0
 51
270.0
  0
ARC
  5
B8
330
111
100
AcDbEntity
  8
1
  6
DASHDOT
 62
     3
100
AcDbCircle
 10
288.0000000000001
 20
0.0
 30
0.0
 40
41.00000000000004
100
AcDbArc
 50
220.4570714619339
 51
229.5429285380663
  0
ARC
  5
B9
330
111
100
AcDbEntity
  8
1
  6
DASHDOT
 62
     3
100
AcDbCircle
 10
288.0000000000001
 20
0.0
 30
0.0
 40
41.00000000000004
100
AcDbArc
 50
310.4570714619339
 51
319.5429285380661
  0
ARC
  5
BA
330
111
100
AcDbEntity
  8
1
  6
DASHDOT
 62
     3
100
AcDbCircle
 10
288.0000000000001
 20
0.0
 30
0.0
 40
40.99999999999999
100
AcDbArc
 50
40.45707146193389
 51
49.54292853806602
  0
ARC
  5
BB
330
111
100
AcDbEntity
  8
1
  6
DASHDOT
 62
     3
100
AcDbCircle
 10
288.0000000000001
 20
0.0
 30
0.0
 40
40.99999999999995
100
AcDbArc
 50
130.4570714619337
 51
139.542928538066
  0
ARC
  5
BC
330
111
100
AcDbEntity
  8
1
  6
DASHDOT
 62
     3
100
AcDbCircle
 10
288.0000000000001
 20
0.0
 30
0.0
 40
22.99999999999998
100
AcDbArc
 50
82.52132953695509
 51
97.47867046304536
  0
ARC
  5
BD
330
111
100
AcDbEntity
  8
1
  6
DASHDOT
 62
     3
100
AcDbCircle
 10
288.0000000000001
 20
0.0
 30
0.0
 40
23.00000000000006
100
AcDbArc
 50
352.5213295369546
 51
7.478670463045317
  0
ARC
  5
BE
330
111
100
AcDbEntity
  8
1
  6
DASHDOT
 62
     3
100
AcDbCircle
 10
288.0000000000001
 20
0.0
 30
0.0
 40
23.00000000000002
100
AcDbArc
 50
262.5213295369547
 51
277.4786704630448
  0
ARC
  5
BF
330
111
100
AcDbEntity
  8
1
 62
     7
100
AcDbCircle
 10
288.0000000000001
 20
0.7999999999999972
 30
0.0
 40
7.200000000000012
100
AcDbArc
 50
312.910184021676
 51
227.0898159783239
  0
ARC
  5
C0
330
111
100
AcDbEntity
  8
1
  6
DASHDOT
 62
     3
100
AcDbCircle
 10
288.0000000000001
 20
0.0
 30
0.0
 40
23.00000000000003
100
AcDbArc
 50
172.5213295369548
 51
187.4786704630452
  0
ARC
  5
C1
330
111
100
AcDbEntity
  8
1
  6
DASHDOT
 62
     3
100
AcDbCircle
 10
0.0
 20
0.0
 30
0.0
 40
40.99999999999996
100
AcDbArc
 50
40.4570714619339
 51
49.54292853806609
  0
ARC
  5
C2
330
111
100
AcDbEntity
  8
1
  6
DASHDOT
 62
     3
100
AcDbCircle
 10
0.0
 20
0.0
 30
0.0
 40
41.0
100
AcDbArc
 50
310.4570714619338
 51
319.5429285380661
  0
ARC
  5
C3
330
111
100
AcDbEntity
  8
1
  6
DASHDOT
 62
     3
100
AcDbCircle
 10
0.0
 20
0.0
 30
0.0
 40
40.99999999999999
100
AcDbArc
 50
220.4570714619339
 51
229.542928538066
  0
ARC
  5
C4
330
111
100
AcDbEntity
  8
1
  6
DASHDOT
 62
     3
100
AcDbCircle
 10
0.0
 20
0.0
 30
0.0
 40
40.99999999999999
100
AcDbArc
 50
130.4570714619339
 51
139.542928538066
  0
ARC
  5
C5
330
111
100
AcDbEntity
  8
1
 62
     7
100
AcDbCircle
 10
0.0
 20
0.0
 30
0.0
 40
45.99999999999999
100
AcDbArc
 50
92.29244277595585
 51
87.70755722404414
  0
ARC
  5
C6
330
111
100
AcDbEntity
  8
1
 62
     7
100
AcDbCircle
 10
0.0
 20
0.7999999999999972
 30
0.0
 40
7.200000000000001
100
AcDbArc
 50
312.9101840216758
 51
227.0898159783239
  0
ARC
  5
C7
330
111
100
AcDbEntity
  8
1
 62
     7
100
AcDbCircle
 10
0.0
 20
0.6999999999999888
 30
0.0
 40
19.0
100
AcDbArc
 50
294.8403533014427
 51
245.159646698557
  0
CIRCLE
  5
C8
330
111
100
AcDbEntity
  8
1
 62
     7
100
AcDbCircle
 10
288.0000000000001
 20
0.0
 30
0.0
 40
46.0
  0
CIRCLE
  5
C9
330
111
100
AcDbEntity
  8
1
 62
     7
100
AcDbCircle
 10
288.0000000000001
 20
0.0
 30
0.0
 40
6.0
  0
CIRCLE
  5
CA
330
111
100
AcDbEntity
  8
1
 62
     7
100
AcDbCircle
 10
316.9913780286486
 20
28.99137802864844
 30
0.0
 40
2.25
  0
CIRCLE
  5
CB
330
111
100
AcDbEntity
  8
1
 62
     7
100
AcDbCircle
 10
259.0086219713517
 20
28.99137802864844
 30
0.0
 40
2.25
  0
CIRCLE
  5
CC
330
111
100
AcDbEntity
  8
1
 62
     7
100
AcDbCircle
 10
259.0086219713517
 20
-28.99137802864844
 30
0.0
 40
2.25
  0
CIRCLE
  5
CD
330
111
100
AcDbEntity
  8
1
 62
     7
100
AcDbCircle
 10
316.9913780286486
 20
-28.99137802864844
 30
0.0
 40
2.25
  0
CIRCLE
  5
CE
330
111
100
AcDbEntity
  8
1
 62
     7
100
AcDbCircle
 10
0.0
 20
0.0
 30
0.0
 40
6.0
  0
CIRCLE
  5
CF
330
111
100
AcDbEntity
  8
1
 62
     7
100
AcDbCircle
 10
288.0000000000001
 20
0.0
 30
0.0
 40
14.0
  0
CIRCLE
  5
D0
330
111
100
AcDbEntity
  8
1
 62
     7
100
AcDbCircle
 10
288.0000000000001
 20
0.0
 30
0.0
 40
27.0
  0
CIRCLE
  5
D1
330
111
100
AcDbEntity
  8
1
 62
     7
100
AcDbCircle
 10
288.0000000000001
 20
0.0
 30
0.0
 40
34.5
  0
CIRCLE
  5
D2
330
111
100
AcDbEntity
  8
1
 62
     3
100
AcDbCircle
 10
288.0000000000001
 20
23.0
 30
0.0
 40
2.0
  0
CIRCLE
  5
D3
330
111
100
AcDbEntity
  8
1
 62
     3
100
AcDbCircle
 10
288.0000000000001
 20
-22.99999999999998
 30
0.0
 40
2.0
  0
CIRCLE
  5
D4
330
111
100
AcDbEntity
  8
1
 62
     3
100
AcDbCircle
 10
311.0000000000001
 20
0.0000000000000099
 30
0.0
 40
2.0
  0
CIRCLE
  5
D5
330
111
100
AcDbEntity
  8
1
 62
     7
100
AcDbCircle
 10
0.0
 20
0.0
 30
0.0
 40
17.5
  0
CIRCLE
  5
D6
330
111
100
AcDbEntity
  8
1
 62
     7
100
AcDbCircle
 10
0.0
 20
0.0
 30
0.0
 40
34.5
  0
CIRCLE
  5
D7
330
111
100
AcDbEntity
  8
1
 62
     7
100
AcDbCircle
 10
0.0
 20
0.0
 30
0.0
 40
14.0
  0
CIRCLE
  5
D8
330
111
100
AcDbEntity
  8
1
 62
     7
100
AcDbCircle
 10
288.0000000000001
 20
23.0
 30
0.0
 40
1.62099999999998
  0
CIRCLE
  5
D9
330
111
100
AcDbEntity
  8
1
 62
     7
100
AcDbCircle
 10
288.0000000000001
 20
-22.99999999999998
 30
0.0
 40
1.621000000000095
  0
CIRCLE
  5
DA
330
111
100
AcDbEntity
  8
1
 62
     7
100
AcDbCircle
 10
311.0000000000001
 20
0.0000000000000099
 30
0.0
 40
1.620999999999867
  0
CIRCLE
  5
DB
330
111
100
AcDbEntity
  8
1
 62
     7
100
AcDbCircle
 10
285.7582364885992
 20
-7.263313776938787
 30
0.0
 40
0.899999999999977
  0
CIRCLE
  5
DC
330
111
100
AcDbEntity
  8
1
 62
     7
100
AcDbCircle
 10
290.2417635114009
 20
-7.263313776938787
 30
0.0
 40
0.899999999999977
  0
CIRCLE
  5
DD
330
111
100
AcDbEntity
  8
1
 62
     3
100
AcDbCircle
 10
265.0
 20
0.0000000000000014
 30
0.0
 40
2.0
  0
CIRCLE
  5
DE
330
111
100
AcDbEntity
  8
1
 62
     7
100
AcDbCircle
 10
265.0
 20
0.0000000000000014
 30
0.0
 40
1.621000000000095
  0
CIRCLE
  5
DF
330
111
100
AcDbEntity
  8
1
 62
     7
100
AcDbCircle
 10
288.0000000000001
 20
0.0
 30
0.0
 40
31.0
  0
CIRCLE
  5
E0
330
111
100
AcDbEntity
  8
1
 62
     7
100
AcDbCircle
 10
0.0
 20
0.0
 30
0.0
 40
31.0
  0
CIRCLE
  5
E1
330
111
100
AcDbEntity
  8
1
 62
     7
100
AcDbCircle
 10
28.99137802864845
 20
28.99137802864844
 30
0.0
 40
2.25
  0
CIRCLE
  5
E2
330
111
100
AcDbEntity
  8
1
 62
     7
100
AcDbCircle
 10
28.99137802864845
 20
-28.99137802864844
 30
0.0
 40
2.25
  0
CIRCLE
  5
E3
330
111
100
AcDbEntity
  8
1
 62
     7
100
AcDbCircle
 10
-28.99137802864845
 20
-28.99137802864844
 30
0.0
 40
2.25
  0
CIRCLE
  5
E4
330
111
100
AcDbEntity
  8
1
 62
     7
100
AcDbCircle
 10
-28.99137802864845
 20
28.99137802864844
 30
0.0
 40
2.25
  0
CIRCLE
  5
E5
330
111
100
AcDbEntity
  8
1
 62
     7
100
AcDbCircle
 10
-2.241763511400883
 20
-7.263313776938787
 30
0.0
 40
0.9000000000000053
  0
CIRCLE
  5
E6
330
111
100
AcDbEntity
  8
1
 62
     7
100
AcDbCircle
 10
2.241763511400868
 20
-7.263313776938787
 30
0.0
 40
0.9000000000000058
  0
CIRCLE
  5
E7
330
111
100
AcDbEntity
  8
1
 62
     7
100
AcDbCircle
 10
3.519147686844406
 20
-20.0781270987751
 30
0.0
 40
1.199999999999988
  0
CIRCLE
  5
E8
330
111
100
AcDbEntity
  8
1
 62
     7
100
AcDbCircle
 10
-3.519147686844518
 20
-20.0781270987751
 30
0.0
 40
1.199999999999989
  0
TEXT
  5
EA
330
111
100
AcDbEntity
  8
1
 62
     7
100
AcDbText
 10
-53.07153668732878
 20
72.94954591321901
 30
0.0
 40
5.0
  1
OPC 20
 41
0.9
  7
SIMPLEX
 72
     1
 11
-40.53582240161449
 21
72.94954591321901
 31
0.0
100
AcDbText
  0
ENDSEC
  0
SECTION
  2
OBJECTS
  0
DICTIONARY
  5
FD
330
0
100
AcDbDictionary
281
     1
  3
ACAD_COLOR
350
10C
  3
ACAD_GROUP
350
FE
  3
ACAD_LAYOUT
350
10A
  3
ACAD_MATERIAL
350
10B
  3
ACAD_MLINESTYLE
350
107
  3
ACAD_PLOTSETTINGS
350
109
  3
ACAD_PLOTSTYLENAME
350
FF
  0
DICTIONARY
  5
10C
102
{ACAD_REACTORS
330
FD
102
}
330
FD
100
AcDbDictionary
281
     1
  0
DICTIONARY
  5
FE
102
{ACAD_REACTORS
330
FD
102
}
330
FD
100
AcDbDictionary
281
     1
  0
DICTIONARY
  5
10A
102
{ACAD_REACTORS
330
FD
102
}
330
FD
100
AcDbDictionary
281
     1
  3
Layout1
350
110
  3
Model
350
114
  0
DICTIONARY
  5
10B
102
{ACAD_REACTORS
330
FD
102
}
330
FD
100
AcDbDictionary
281
     1
  0
DICTIONARY
  5
107
102
{ACAD_REACTORS
330
FD
102
}
330
FD
100
AcDbDictionary
281
     1
  3
Standard
350
108
  0
DICTIONARY
  5
109
102
{ACAD_REACTORS
330
FD
102
}
330
FD
100
AcDbDictionary
281
     1
  0
ACDBDICTIONARYWDFLT
  5
FF
102
{ACAD_REACTORS
330
FD
102
}
330
FD
100
AcDbDictionary
281
     1
  3
Normal
350
100
100
AcDbDictionaryWithDefault
340
100
  0
LAYOUT
  5
110
102
{ACAD_REACTORS
330
10A
102
}
330
10A
100
AcDbPlotSettings
  1

  2
\\Ogura1\HP Color LaserJet 4600 PCL 5c
  4

  6

 40
0.0
 41
0.0
 42
0.0
 43
0.0
 44
0.0
 45
0.0
 46
0.0
 47
0.0
 48
0.0
 49
0.0
140
0.0
141
0.0
142
1.0
143
1.0
 70
   688
 72
     0
 73
     0
 74
     5
  7

 75
    16
147
1.0
 76
     0
 77
     2
 78
   300
148
0.0
149
0.0
100
AcDbLayout
  1
Layout1
 70
     1
 71
     1
 10
0.0
 20
0.0
 11
12.0
 21
9.0
 12
0.0
 22
0.0
 32
0.0
 14
1.000000000000000E+20
 24
1.000000000000000E+20
 34
1.000000000000000E+20
 15
-1.000000000000000E+20
 25
-1.000000000000000E+20
 35
-1.000000000000000E+20
146
0.0
 13
0.0
 23
0.0
 33
0.0
 16
1.0
 26
0.0
 36
0.0
 17
0.0
 27
1.0
 37
0.0
 76
     0
330
10D
  0
LAYOUT
  5
114
102
{ACAD_REACTORS
330
10A
102
}
330
10A
100
AcDbPlotSettings
  1

  2
\\Ogura1\HP Color LaserJet 4600 PCL 5c
  4

  6

 40
0.0
 41
0.0
 42
0.0
 43
0.0
 44
0.0
 45
0.0
 46
0.0
 47
0.0
 48
0.0
 49
0.0
140
0.0
141
0.0
142
1.0
143
1.0
 70
  1712
 72
     0
 73
     0
 74
     0
  7

 75
     0
147
1.0
 76
     0
 77
     2
 78
   300
148
0.0
149
0.0
100
AcDbLayout
  1
Model
 70
     1
 71
     0
 10
0.0
 20
0.0
 11
12.0
 21
9.0
 12
0.0
 22
0.0
 32
0.0
 14
0.0
 24
0.0
 34
0.0
 15
0.0
 25
0.0
 35
0.0
146
0.0
 13
0.0
 23
0.0
 33
0.0
 16
1.0
 26
0.0
 36
0.0
 17
0.0
 27
1.0
 37
0.0
 76
     0
330
111
  0
MLINESTYLE
  5
108
102
{ACAD_REACTORS
330
107
102
}
330
107
100
AcDbMlineStyle
  2
STANDARD
 70
     0
  3

 62
   256
 51
90.0
 52
90.0
 71
     2
 49
0.5
 62
   256
  6
BYLAYER
 49
-0.5
 62
   256
  6
BYLAYER
  0
ACDBPLACEHOLDER
  5
100
102
{ACAD_REACTORS
330
FF
102
}
330
FF
  0
ENDSEC
  0
EOF
