  0
SECTION
  2
HEADER
  9
$ACADVER
  1
AC1018
  9
$ACADMAINTVER
 70
     0
  9
$DWGCODEPAGE
  3
ANSI_932
  9
$INSBASE
 10
0.0
 20
0.0
 30
0.0
  9
$EXTMIN
 10
-57.79936378702974
 20
-56.00445003026431
 30
-0.0015258207003583
  9
$EXTMAX
 10
345.0123193399293
 20
89.83416816645092
 30
0.0000000349246037
  9
$LIMMIN
 10
-58.6493343344388
 20
-56.00000000000001
  9
$LIMMAX
 10
345.0000000000001
 20
89.82971745711399
  9
$ORTHOMODE
 70
     0
  9
$REGENMODE
 70
     1
  9
$FILLMODE
 70
     1
  9
$QTEXTMODE
 70
     0
  9
$MIRRTEXT
 70
     1
  9
$LTSCALE
 40
1.0
  9
$ATTMODE
 70
     1
  9
$TEXTSIZE
 40
3.5
  9
$TRACEWID
 40
0.5
  9
$TEXTSTYLE
  7
STANDARD
  9
$CLAYER
  8
0
  9
$CELTYPE
  6
ByLayer
  9
$CECOLOR
 62
   256
  9
$CELTSCALE
 40
1.0
  9
$DISPSILH
 70
     0
  9
$DIMSCALE
 40
1.0
  9
$DIMASZ
 40
0.18
  9
$DIMEXO
 40
0.0625
  9
$DIMDLI
 40
0.38
  9
$DIMRND
 40
0.0
  9
$DIMDLE
 40
0.0
  9
$DIMEXE
 40
0.18
  9
$DIMTP
 40
0.0
  9
$DIMTM
 40
0.0
  9
$DIMTXT
 40
0.18
  9
$DIMCEN
 40
0.09
  9
$DIMTSZ
 40
0.0
  9
$DIMTOL
 70
     0
  9
$DIMLIM
 70
     0
  9
$DIMTIH
 70
     1
  9
$DIMTOH
 70
     1
  9
$DIMSE1
 70
     0
  9
$DIMSE2
 70
     0
  9
$DIMTAD
 70
     0
  9
$DIMZIN
 70
     0
  9
$DIMBLK
  1

  9
$DIMASO
 70
     1
  9
$DIMSHO
 70
     1
  9
$DIMPOST
  1

  9
$DIMAPOST
  1

  9
$DIMALT
 70
     0
  9
$DIMALTD
 70
     2
  9
$DIMALTF
 40
25.4
  9
$DIMLFAC
 40
1.0
  9
$DIMTOFL
 70
     0
  9
$DIMTVP
 40
0.0
  9
$DIMTIX
 70
     0
  9
$DIMSOXD
 70
     0
  9
$DIMSAH
 70
     0
  9
$DIMBLK1
  1

  9
$DIMBLK2
  1

  9
$DIMSTYLE
  2
STANDARD
  9
$DIMCLRD
 70
     0
  9
$DIMCLRE
 70
     0
  9
$DIMCLRT
 70
     0
  9
$DIMTFAC
 40
1.0
  9
$DIMGAP
 40
0.09
  9
$DIMJUST
 70
     0
  9
$DIMSD1
 70
     0
  9
$DIMSD2
 70
     0
  9
$DIMTOLJ
 70
     1
  9
$DIMTZIN
 70
     0
  9
$DIMALTZ
 70
     0
  9
$DIMALTTZ
 70
     0
  9
$DIMUPT
 70
     0
  9
$DIMDEC
 70
     4
  9
$DIMTDEC
 70
     4
  9
$DIMALTU
 70
     2
  9
$DIMALTTD
 70
     2
  9
$DIMTXSTY
  7
STANDARD
  9
$DIMAUNIT
 70
     0
  9
$DIMADEC
 70
     0
  9
$DIMALTRND
 40
0.0
  9
$DIMAZIN
 70
     0
  9
$DIMDSEP
 70
    46
  9
$DIMATFIT
 70
     3
  9
$DIMFRAC
 70
     0
  9
$DIMLDRBLK
  1

  9
$DIMLUNIT
 70
     2
  9
$DIMLWD
 70
    -2
  9
$DIMLWE
 70
    -2
  9
$DIMTMOVE
 70
     0
  9
$LUNITS
 70
     2
  9
$LUPREC
 70
     4
  9
$SKETCHINC
 40
0.1
  9
$FILLETRAD
 40
2.0
  9
$AUNITS
 70
     0
  9
$AUPREC
 70
     0
  9
$MENU
  1
ACAD
  9
$ELEVATION
 40
0.0
  9
$PELEVATION
 40
0.0
  9
$THICKNESS
 40
0.0
  9
$LIMCHECK
 70
     0
  9
$CHAMFERA
 40
0.0
  9
$CHAMFERB
 40
0.0
  9
$CHAMFERC
 40
0.0
  9
$CHAMFERD
 40
0.0
  9
$SKPOLY
 70
     0
  9
$TDCREATE
 40
2452095.115274769
  9
$TDUCREATE
 40
2452095.281941435
  9
$TDUPDATE
 40
2453209.453513229
  9
$TDUUPDATE
 40
2453209.620179896
  9
$TDINDWG
 40
0.0004586111
  9
$TDUSRTIMER
 40
0.0004584375
  9
$USRTIMER
 70
     1
  9
$ANGBASE
 50
0.0
  9
$ANGDIR
 70
     0
  9
$PDMODE
 70
     0
  9
$PDSIZE
 40
0.0
  9
$PLINEWID
 40
0.0
  9
$SPLFRAME
 70
     0
  9
$SPLINETYPE
 70
     6
  9
$SPLINESEGS
 70
     8
  9
$HANDSEED
  5
122
  9
$SURFTAB1
 70
     6
  9
$SURFTAB2
 70
     6
  9
$SURFTYPE
 70
     6
  9
$SURFU
 70
     6
  9
$SURFV
 70
     6
  9
$UCSBASE
  2

  9
$UCSNAME
  2

  9
$UCSORG
 10
0.0
 20
0.0
 30
0.0
  9
$UCSXDIR
 10
1.0
 20
0.0
 30
0.0
  9
$UCSYDIR
 10
0.0
 20
1.0
 30
0.0
  9
$UCSORTHOREF
  2

  9
$UCSORTHOVIEW
 70
     0
  9
$UCSORGTOP
 10
0.0
 20
0.0
 30
0.0
  9
$UCSORGBOTTOM
 10
0.0
 20
0.0
 30
0.0
  9
$UCSORGLEFT
 10
0.0
 20
0.0
 30
0.0
  9
$UCSORGRIGHT
 10
0.0
 20
0.0
 30
0.0
  9
$UCSORGFRONT
 10
0.0
 20
0.0
 30
0.0
  9
$UCSORGBACK
 10
0.0
 20
0.0
 30
0.0
  9
$PUCSBASE
  2

  9
$PUCSNAME
  2

  9
$PUCSORG
 10
0.0
 20
0.0
 30
0.0
  9
$PUCSXDIR
 10
1.0
 20
0.0
 30
0.0
  9
$PUCSYDIR
 10
0.0
 20
1.0
 30
0.0
  9
$PUCSORTHOREF
  2

  9
$PUCSORTHOVIEW
 70
     0
  9
$PUCSORGTOP
 10
0.0
 20
0.0
 30
0.0
  9
$PUCSORGBOTTOM
 10
0.0
 20
0.0
 30
0.0
  9
$PUCSORGLEFT
 10
0.0
 20
0.0
 30
0.0
  9
$PUCSORGRIGHT
 10
0.0
 20
0.0
 30
0.0
  9
$PUCSORGFRONT
 10
0.0
 20
0.0
 30
0.0
  9
$PUCSORGBACK
 10
0.0
 20
0.0
 30
0.0
  9
$USERI1
 70
     0
  9
$USERI2
 70
     0
  9
$USERI3
 70
     0
  9
$USERI4
 70
     0
  9
$USERI5
 70
     0
  9
$USERR1
 40
0.0
  9
$USERR2
 40
0.0
  9
$USERR3
 40
0.0
  9
$USERR4
 40
0.0
  9
$USERR5
 40
0.0
  9
$WORLDVIEW
 70
     1
  9
$SHADEDGE
 70
     3
  9
$SHADEDIF
 70
    70
  9
$TILEMODE
 70
     1
  9
$MAXACTVP
 70
    64
  9
$PINSBASE
 10
0.0
 20
0.0
 30
0.0
  9
$PLIMCHECK
 70
     0
  9
$PEXTMIN
 10
1.000000000000000E+20
 20
1.000000000000000E+20
 30
1.000000000000000E+20
  9
$PEXTMAX
 10
-1.000000000000000E+20
 20
-1.000000000000000E+20
 30
-1.000000000000000E+20
  9
$PLIMMIN
 10
0.0
 20
0.0
  9
$PLIMMAX
 10
12.0
 20
9.0
  9
$UNITMODE
 70
     0
  9
$VISRETAIN
 70
     1
  9
$PLINEGEN
 70
     0
  9
$PSLTSCALE
 70
     1
  9
$TREEDEPTH
 70
  3020
  9
$CMLSTYLE
  2
Standard
  9
$CMLJUST
 70
     0
  9
$CMLSCALE
 40
1.0
  9
$PROXYGRAPHICS
 70
     1
  9
$MEASUREMENT
 70
     0
  9
$CELWEIGHT
370
    -1
  9
$ENDCAPS
280
     0
  9
$JOINSTYLE
280
     0
  9
$LWDISPLAY
290
     0
  9
$INSUNITS
 70
     0
  9
$HYPERLINKBASE
  1

  9
$STYLESHEET
  1

  9
$XEDIT
290
     1
  9
$CEPSNTYPE
380
     0
  9
$PSTYLEMODE
290
     1
  9
$FINGERPRINTGUID
  2
{A94C73C0-4E16-4C19-9DE1-596A1ECD4BC6}
  9
$VERSIONGUID
  2
{73DBCD00-2E2D-493E-AB24-19038E590B87}
  9
$EXTNAMES
290
     1
  9
$PSVPSCALE
 40
0.0
  9
$OLESTARTUP
290
     0
  9
$SORTENTS
280
   127
  9
$INDEXCTL
280
     0
  9
$HIDETEXT
280
     0
  9
$XCLIPFRAME
290
     0
  9
$HALOGAP
280
     0
  9
$OBSCOLOR
 70
   257
  9
$OBSLTYPE
280
     0
  9
$INTERSECTIONDISPLAY
280
     0
  9
$INTERSECTIONCOLOR
 70
   257
  9
$DIMASSOC
280
     1
  9
$PROJECTNAME
  1

  0
ENDSEC
  0
SECTION
  2
CLASSES
  0
CLASS
  1
ACDBDICTIONARYWDFLT
  2
AcDbDictionaryWithDefault
  3
ObjectDBX Classes
 90
        0
 91
        1
280
     0
281
     0
  0
ENDSEC
  0
SECTION
  2
TABLES
  0
TABLE
  2
VPORT
  5
EF
330
0
100
AcDbSymbolTable
 70
     2
  0
VPORT
  5
121
330
EF
100
AcDbSymbolTableRecord
100
AcDbViewportTableRecord
  2
*Active
 70
     0
 10
0.0
 20
0.0
 11
1.0
 21
1.0
 12
143.6064777764497
 22
16.91485906809331
 13
0.0
 23
0.0
 14
1.0
 24
1.0
 15
0.0
 25
0.0
 16
0.0
 26
0.0
 36
1.0
 17
0.0
 27
0.0
 37
0.0
 40
249.2604501613314
 41
1.625
 42
50.0
 43
0.0
 44
0.0
 50
0.0
 51
0.0
 71
     0
 72
   100
 73
     1
 74
     1
 75
     0
 76
     0
 77
     0
 78
     0
281
     0
 65
     1
110
0.0
120
0.0
130
0.0
111
1.0
121
0.0
131
0.0
112
0.0
122
1.0
132
0.0
 79
     0
146
0.0
  0
ENDTAB
  0
TABLE
  2
LTYPE
  5
EC
330
0
100
AcDbSymbolTable
 70
     9
  0
LTYPE
  5
FA
330
EC
100
AcDbSymbolTableRecord
100
AcDbLinetypeTableRecord
  2
ByBlock
 70
     0
  3

 72
    65
 73
     0
 40
0.0
  0
LTYPE
  5
FB
330
EC
100
AcDbSymbolTableRecord
100
AcDbLinetypeTableRecord
  2
ByLayer
 70
     0
  3

 72
    65
 73
     0
 40
0.0
  0
LTYPE
  5
FC
330
EC
100
AcDbSymbolTableRecord
100
AcDbLinetypeTableRecord
  2
CONTINUOUS
 70
     0
  3
Solid line
 72
    65
 73
     0
 40
0.0
  0
LTYPE
  5
10C
330
EC
100
AcDbSymbolTableRecord
100
AcDbLinetypeTableRecord
  2
BORDER
 70
     0
  3
__ __ . __ __ .
 72
    65
 73
     6
 40
18.58911408119125
 49
5.311175451768932
 74
     0
 49
-2.655587725884466
 74
     0
 49
5.311175451768932
 74
     0
 49
-2.655587725884466
 74
     0
 49
0.0
 74
     0
 49
-2.655587725884466
 74
     0
  0
LTYPE
  5
10D
330
EC
100
AcDbSymbolTableRecord
100
AcDbLinetypeTableRecord
  2
CENTER
 70
     0
  3
____ _ ____ _
 72
    65
 73
     4
 40
21.24470180707572
 49
13.27793862942233
 74
     0
 49
-2.655587725884466
 74
     0
 49
2.655587725884466
 74
     0
 49
-2.655587725884466
 74
     0
  0
LTYPE
  5
10E
330
EC
100
AcDbSymbolTableRecord
100
AcDbLinetypeTableRecord
  2
DASHDOT
 70
     0
  3
__ . __ . __ .
 72
    65
 73
     4
 40
10.62235090353786
 49
5.311175451768932
 74
     0
 49
-2.655587725884466
 74
     0
 49
0.0
 74
     0
 49
-2.655587725884466
 74
     0
  0
LTYPE
  5
10F
330
EC
100
AcDbSymbolTableRecord
100
AcDbLinetypeTableRecord
  2
DASHED
 70
     0
  3
__ __ __ __ __
 72
    65
 73
     2
 40
7.966763177653398
 49
5.311175451768932
 74
     0
 49
-2.655587725884466
 74
     0
  0
LTYPE
  5
110
330
EC
100
AcDbSymbolTableRecord
100
AcDbLinetypeTableRecord
  2
DIVIDE
 70
     0
  3
__ . . __ . . 
 72
    65
 73
     6
 40
13.27793862942233
 49
5.311175451768932
 74
     0
 49
-2.655587725884466
 74
     0
 49
0.0
 74
     0
 49
-2.655587725884466
 74
     0
 49
0.0
 74
     0
 49
-2.655587725884466
 74
     0
  0
LTYPE
  5
111
330
EC
100
AcDbSymbolTableRecord
100
AcDbLinetypeTableRecord
  2
DOT
 70
     0
  3
..............
 72
    65
 73
     4
 40
5.311175451768932
 49
0.0
 74
     0
 49
-2.655587725884466
 74
     0
 49
0.0
 74
     0
 49
-2.655587725884466
 74
     0
  0
LTYPE
  5
112
330
EC
100
AcDbSymbolTableRecord
100
AcDbLinetypeTableRecord
  2
HIDDEN
 70
     0
  3
_ _ _ _ _ _ _
 72
    65
 73
     2
 40
3.983381588826699
 49
2.655587725884466
 74
     0
 49
-1.327793862942233
 74
     0
  0
LTYPE
  5
113
330
EC
100
AcDbSymbolTableRecord
100
AcDbLinetypeTableRecord
  2
PHANTOM
 70
     0
  3
_____ _ _ _____ _ _ 
 72
    65
 73
     6
 40
26.55587725884466
 49
13.27793862942233
 74
     0
 49
-2.655587725884466
 74
     0
 49
2.655587725884466
 74
     0
 49
-2.655587725884466
 74
     0
 49
2.655587725884466
 74
     0
 49
-2.655587725884466
 74
     0
  0
ENDTAB
  0
TABLE
  2
LAYER
  5
E9
330
0
100
AcDbSymbolTable
 70
     2
  0
LAYER
  5
F7
330
E9
100
AcDbSymbolTableRecord
100
AcDbLayerTableRecord
  2
0
 70
     0
 62
     7
  6
CONTINUOUS
370
    -3
390
F6
  0
LAYER
  5
114
330
E9
100
AcDbSymbolTableRecord
100
AcDbLayerTableRecord
  2
1
 70
     0
 62
     7
  6
CONTINUOUS
370
    -3
390
F6
  0
ENDTAB
  0
TABLE
  2
STYLE
  5
EA
330
0
100
AcDbSymbolTable
 70
     4
  0
STYLE
  5
F8
330
EA
100
AcDbSymbolTableRecord
100
AcDbTextStyleTableRecord
  2
STANDARD
 70
     0
 40
0.0
 41
1.0
 50
0.0
 71
     0
 42
3.5
  3
txt
  4

  0
STYLE
  5
115
330
EA
100
AcDbSymbolTableRecord
100
AcDbTextStyleTableRecord
  2
SIMPLEX
 70
     0
 40
0.0
 41
1.0
 50
0.0
 71
     0
 42
3.5
  3
simplex
  4

  0
STYLE
  5
116
330
EA
100
AcDbSymbolTableRecord
100
AcDbTextStyleTableRecord
  2
COMPLEX
 70
     0
 40
0.0
 41
1.0
 50
0.0
 71
     0
 42
3.5
  3
complex
  4

  0
STYLE
  5
117
330
EA
100
AcDbSymbolTableRecord
100
AcDbTextStyleTableRecord
  2
ITALIC
 70
     0
 40
0.0
 41
1.0
 50
0.0
 71
     0
 42
3.5
  3
italic
  4

  0
ENDTAB
  0
TABLE
  2
VIEW
  5
ED
330
0
100
AcDbSymbolTable
 70
     0
  0
ENDTAB
  0
TABLE
  2
UCS
  5
EE
330
0
100
AcDbSymbolTable
 70
     0
  0
ENDTAB
  0
TABLE
  2
APPID
  5
F0
330
0
100
AcDbSymbolTable
 70
     1
  0
APPID
  5
F9
330
F0
100
AcDbSymbolTableRecord
100
AcDbRegAppTableRecord
  2
ACAD
 70
     0
  0
ENDTAB
  0
TABLE
  2
DIMSTYLE
  5
F1
330
0
100
AcDbSymbolTable
 70
     1
100
AcDbDimStyleTable
 71
     0
  0
DIMSTYLE
105
118
330
F1
100
AcDbSymbolTableRecord
100
AcDbDimStyleTableRecord
  2
STANDARD
 70
     0
279
     2
340
F8
  0
ENDTAB
  0
TABLE
  2
BLOCK_RECORD
  5
E8
330
0
100
AcDbSymbolTable
 70
     2
  0
BLOCK_RECORD
  5
107
330
E8
100
AcDbSymbolTableRecord
100
AcDbBlockTableRecord
  2
*Model_Space
340
10A
  0
BLOCK_RECORD
  5
103
330
E8
100
AcDbSymbolTableRecord
100
AcDbBlockTableRecord
  2
*Paper_Space
340
106
  0
BLOCK_RECORD
  5
11D
330
E8
100
AcDbSymbolTableRecord
100
AcDbBlockTableRecord
  2
$MODEL_SPACE
340
0
  0
BLOCK_RECORD
  5
11F
330
E8
100
AcDbSymbolTableRecord
100
AcDbBlockTableRecord
  2
$PAPER_SPACE
340
0
  0
ENDTAB
  0
ENDSEC
  0
SECTION
  2
BLOCKS
  0
BLOCK
  5
108
330
107
100
AcDbEntity
  8
0
100
AcDbBlockBegin
  2
*Model_Space
 70
     0
 10
0.0
 20
0.0
 30
0.0
  3
*Model_Space
  1

  0
ENDBLK
  5
109
330
107
100
AcDbEntity
  8
0
100
AcDbBlockEnd
  0
BLOCK
  5
104
330
103
100
AcDbEntity
 67
     1
  8
0
100
AcDbBlockBegin
  2
*Paper_Space
 70
     0
 10
0.0
 20
0.0
 30
0.0
  3
*Paper_Space
  1

  0
ENDBLK
  5
105
330
103
100
AcDbEntity
 67
     1
  8
0
100
AcDbBlockEnd
  0
BLOCK
  5
11E
330
11D
100
AcDbEntity
  8
0
100
AcDbBlockBegin
  2
$MODEL_SPACE
 70
     0
 10
0.0
 20
0.0
 30
0.0
  3
$MODEL_SPACE
  1

  0
ENDBLK
  5
20
330
11D
100
AcDbEntity
  8
0
100
AcDbBlockEnd
  0
BLOCK
  5
120
330
11F
100
AcDbEntity
  8
0
100
AcDbBlockBegin
  2
$PAPER_SPACE
 70
     0
 10
0.0
 20
0.0
 30
0.0
  3
$PAPER_SPACE
  1

  0
ENDBLK
  5
1C
330
11F
100
AcDbEntity
  8
0
100
AcDbBlockEnd
  0
ENDSEC
  0
SECTION
  2
ENTITIES
  0
LINE
  5
33
330
107
100
AcDbEntity
  8
1
  6
DASHDOT
 62
     3
100
AcDbLine
 10
37.6534360981837
 20
-37.65343609818364
 30
0.0
 11
33.05724202047116
 21
-33.05724202047109
 31
0.0
  0
LINE
  5
34
330
107
100
AcDbEntity
  8
1
  6
DASHDOT
 62
     3
100
AcDbLine
 10
-37.6534360981837
 20
-37.65343609818375
 30
0.0
 11
-33.05724202047122
 21
-33.05724202047118
 31
0.0
  0
LINE
  5
35
330
107
100
AcDbEntity
  8
1
  6
DASHDOT
 62
     3
100
AcDbLine
 10
-37.6534360981837
 20
37.65343609818362
 30
0.0
 11
-33.05724202047122
 21
33.05724202047108
 31
0.0
  0
LINE
  5
36
330
107
100
AcDbEntity
  8
1
  6
DASHDOT
 62
     3
100
AcDbLine
 10
37.6534360981837
 20
37.65343609818365
 30
0.0
 11
33.05724202047116
 21
33.0572420204711
 31
0.0
  0
LINE
  5
37
330
107
100
AcDbEntity
  8
1
 62
     3
100
AcDbLine
 10
-0.9200000000000432
 20
80.0
 30
0.0
 11
-0.9200000000000432
 21
75.0
 31
0.0
  0
LINE
  5
38
330
107
100
AcDbEntity
  8
1
 62
     3
100
AcDbLine
 10
0.9199999999999569
 20
75.0
 30
0.0
 11
0.9199999999999569
 21
80.0
 31
0.0
  0
LINE
  5
39
330
107
100
AcDbEntity
  8
1
 62
     3
100
AcDbLine
 10
145.0
 20
80.0
 30
0.0
 11
145.0
 21
75.0
 31
0.0
  0
LINE
  5
3A
330
107
100
AcDbEntity
  8
1
 62
     3
100
AcDbLine
 10
288.0799999999999
 20
80.0
 30
0.0
 11
288.0799999999999
 21
75.0
 31
0.0
  0
LINE
  5
3B
330
107
100
AcDbEntity
  8
1
 62
     3
100
AcDbLine
 10
289.9200000000001
 20
75.0
 30
0.0
 11
289.9200000000001
 21
80.0
 31
0.0
  0
LINE
  5
3C
330
107
100
AcDbEntity
  8
1
  6
DASHDOT
 62
     3
100
AcDbLine
 10
100.0000000000001
 20
2.999999999999985
 30
0.0
 11
100.0000000000001
 21
-3.000000000000012
 31
0.0
  0
LINE
  5
3D
330
107
100
AcDbEntity
  8
1
  6
DASHDOT
 62
     3
100
AcDbLine
 10
189.0
 20
2.999999999999985
 30
0.0
 11
189.0
 21
-3.000000000000012
 31
0.0
  0
LINE
  5
3E
330
107
100
AcDbEntity
  8
1
  6
DASHDOT
 62
     3
100
AcDbLine
 10
287.5
 20
0.0
 30
0.0
 11
290.5000000000001
 21
0.0
 31
0.0
  0
LINE
  5
3F
330
107
100
AcDbEntity
  8
1
  6
DASHDOT
 62
     3
100
AcDbLine
 10
289.0
 20
1.5
 30
0.0
 11
289.0
 21
-1.499999999999992
 31
0.0
  0
LINE
  5
40
330
107
100
AcDbEntity
  8
1
  6
DASHDOT
 62
     3
100
AcDbLine
 10
326.6534360981838
 20
37.65343609818365
 30
0.0
 11
322.0572420204713
 21
33.0572420204711
 31
0.0
  0
LINE
  5
41
330
107
100
AcDbEntity
  8
1
  6
DASHDOT
 62
     3
100
AcDbLine
 10
251.3465639018164
 20
37.65343609818362
 30
0.0
 11
255.9427579795289
 21
33.05724202047108
 31
0.0
  0
LINE
  5
42
330
107
100
AcDbEntity
  8
1
  6
DASHDOT
 62
     3
100
AcDbLine
 10
251.3465639018164
 20
-37.65343609818375
 30
0.0
 11
255.9427579795289
 21
-33.05724202047118
 31
0.0
  0
LINE
  5
43
330
107
100
AcDbEntity
  8
1
  6
DASHDOT
 62
     3
100
AcDbLine
 10
326.6534360981838
 20
-37.65343609818364
 30
0.0
 11
322.0572420204713
 21
-33.05724202047109
 31
0.0
  0
LINE
  5
44
330
107
100
AcDbEntity
  8
1
 62
     7
100
AcDbLine
 10
148.0
 20
43.66997290656099
 30
0.0
 11
148.0
 21
43.0
 31
0.0
  0
LINE
  5
45
330
107
100
AcDbEntity
  8
1
 62
     7
100
AcDbLine
 10
142.0
 20
43.66997290656099
 30
0.0
 11
148.0
 21
43.66997290656099
 31
0.0
  0
LINE
  5
46
330
107
100
AcDbEntity
  8
1
 62
     7
100
AcDbLine
 10
142.0
 20
43.66997290656099
 30
0.0
 11
142.0
 21
43.0
 31
0.0
  0
LINE
  5
47
330
107
100
AcDbEntity
  8
1
 62
     7
100
AcDbLine
 10
290.8400000000003
 20
75.0
 30
0.0
 11
290.8400000000003
 21
55.9554264895021
 31
0.0
  0
LINE
  5
48
330
107
100
AcDbEntity
  8
1
 62
     7
100
AcDbLine
 10
161.0000000000001
 20
43.0
 30
0.0
 11
176.0
 21
43.0
 31
0.0
  0
LINE
  5
49
330
107
100
AcDbEntity
  8
1
 62
     7
100
AcDbLine
 10
161.0000000000001
 20
56.0
 30
0.0
 11
161.0000000000001
 21
-56.00000000000001
 31
0.0
  0
LINE
  5
4A
330
107
100
AcDbEntity
  8
1
 62
     7
100
AcDbLine
 10
156.0
 20
56.0
 30
0.0
 11
161.0000000000001
 21
56.0
 31
0.0
  0
LINE
  5
4B
330
107
100
AcDbEntity
  8
1
 62
     7
100
AcDbLine
 10
156.0
 20
56.0
 30
0.0
 11
156.0
 21
-56.00000000000001
 31
0.0
  0
LINE
  5
4C
330
107
100
AcDbEntity
  8
1
 62
     7
100
AcDbLine
 10
117.0000000000001
 20
43.0
 30
0.0
 11
156.0
 21
43.0
 31
0.0
  0
LINE
  5
4D
330
107
100
AcDbEntity
  8
1
 62
     7
100
AcDbLine
 10
156.0
 20
-42.99999999999999
 30
0.0
 11
117.0000000000001
 21
-43.0
 31
0.0
  0
LINE
  5
4E
330
107
100
AcDbEntity
  8
1
 62
     7
100
AcDbLine
 10
161.0000000000001
 20
-56.00000000000001
 30
0.0
 11
156.0
 21
-56.00000000000001
 31
0.0
  0
LINE
  5
4F
330
107
100
AcDbEntity
  8
1
 62
     7
100
AcDbLine
 10
176.0
 20
-43.0
 30
0.0
 11
161.0000000000001
 21
-42.99999999999999
 31
0.0
  0
LINE
  5
50
330
107
100
AcDbEntity
  8
1
 62
     7
100
AcDbLine
 10
106.0
 20
-25.0
 30
0.0
 11
106.0
 21
25.0
 31
0.0
  0
LINE
  5
51
330
107
100
AcDbEntity
  8
1
 62
     7
100
AcDbLine
 10
115.0000000000001
 20
-25.0
 30
0.0
 11
106.0
 21
-25.0
 31
0.0
  0
LINE
  5
52
330
107
100
AcDbEntity
  8
1
 62
     7
100
AcDbLine
 10
106.0
 20
25.0
 30
0.0
 11
115.0000000000001
 21
25.0
 31
0.0
  0
LINE
  5
53
330
107
100
AcDbEntity
  8
1
 62
     7
100
AcDbLine
 10
193.0
 20
-10.0
 30
0.0
 11
184.2
 21
-10.0
 31
0.0
  0
LINE
  5
54
330
107
100
AcDbEntity
  8
1
 62
     7
100
AcDbLine
 10
193.0
 20
10.0
 30
0.0
 11
193.0
 21
-10.0
 31
0.0
  0
LINE
  5
55
330
107
100
AcDbEntity
  8
1
 62
     7
100
AcDbLine
 10
184.2
 20
10.0
 30
0.0
 11
193.0
 21
10.0
 31
0.0
  0
LINE
  5
56
330
107
100
AcDbEntity
  8
1
 62
     7
100
AcDbLine
 10
104.8
 20
-10.0
 30
0.0
 11
96.00000000000013
 21
-10.0
 31
0.0
  0
LINE
  5
57
330
107
100
AcDbEntity
  8
1
 62
     7
100
AcDbLine
 10
96.00000000000013
 20
10.0
 30
0.0
 11
104.8
 21
10.0
 31
0.0
  0
LINE
  5
58
330
107
100
AcDbEntity
  8
1
 62
     7
100
AcDbLine
 10
96.00000000000013
 20
-10.0
 30
0.0
 11
96.00000000000013
 21
10.0
 31
0.0
  0
LINE
  5
59
330
107
100
AcDbEntity
  8
1
 62
     7
100
AcDbLine
 10
177.0
 20
-35.0
 30
0.0
 11
183.0
 21
-35.0
 31
0.0
  0
LINE
  5
5A
330
107
100
AcDbEntity
  8
1
 62
     7
100
AcDbLine
 10
176.0
 20
-27.5
 30
0.0
 11
177.0
 21
-27.5
 31
0.0
  0
LINE
  5
5B
330
107
100
AcDbEntity
  8
1
  6
DASHDOT
 62
     3
100
AcDbLine
 10
93.00000000000013
 20
0.0
 30
0.0
 11
103.0
 21
0.0
 31
0.0
  0
LINE
  5
5C
330
107
100
AcDbEntity
  8
1
 62
     7
100
AcDbLine
 10
177.0
 20
27.5
 30
0.0
 11
176.0
 21
27.5
 31
0.0
  0
LINE
  5
5D
330
107
100
AcDbEntity
  8
1
 62
     7
100
AcDbLine
 10
183.0
 20
35.0
 30
0.0
 11
177.0
 21
35.0
 31
0.0
  0
LINE
  5
5E
330
107
100
AcDbEntity
  8
1
 62
     7
100
AcDbLine
 10
183.0000000000002
 20
12.00000000000001
 30
0.0
 11
184.2
 21
12.00000000000001
 31
0.0
  0
LINE
  5
5F
330
107
100
AcDbEntity
  8
1
 62
     7
100
AcDbLine
 10
184.2
 20
12.00000000000001
 30
0.0
 11
184.2
 21
-13.36794863550169
 31
0.0
  0
LINE
  5
60
330
107
100
AcDbEntity
  8
1
 62
     7
100
AcDbLine
 10
184.2
 20
-13.36794863550169
 30
0.0
 11
183.0000000000002
 21
-13.36794863550169
 31
0.0
  0
LINE
  5
61
330
107
100
AcDbEntity
  8
1
 62
     7
100
AcDbLine
 10
106.0
 20
12.00000000000001
 30
0.0
 11
104.8
 21
12.00000000000001
 31
0.0
  0
LINE
  5
62
330
107
100
AcDbEntity
  8
1
 62
     7
100
AcDbLine
 10
104.8
 20
12.00000000000001
 30
0.0
 11
104.8
 21
-13.36794863550169
 31
0.0
  0
LINE
  5
63
330
107
100
AcDbEntity
  8
1
 62
     7
100
AcDbLine
 10
104.8
 20
-13.36794863550169
 30
0.0
 11
106.0
 21
-13.36794863550169
 31
0.0
  0
LINE
  5
64
330
107
100
AcDbEntity
  8
1
 62
     7
100
AcDbLine
 10
117.0000000000001
 20
27.90000000000002
 30
0.0
 11
115.0000000000001
 21
27.9
 31
0.0
  0
LINE
  5
65
330
107
100
AcDbEntity
  8
1
 62
     7
100
AcDbLine
 10
115.0000000000001
 20
27.9
 30
0.0
 11
115.0000000000001
 21
-30.2
 31
0.0
  0
LINE
  5
66
330
107
100
AcDbEntity
  8
1
 62
     7
100
AcDbLine
 10
115.0000000000001
 20
-30.2
 30
0.0
 11
117.0000000000001
 21
-30.2
 31
0.0
  0
LINE
  5
67
330
107
100
AcDbEntity
  8
1
 62
     7
100
AcDbLine
 10
117.0000000000001
 20
43.0
 30
0.0
 11
117.0000000000001
 21
-43.0
 31
0.0
  0
LINE
  5
68
330
107
100
AcDbEntity
  8
1
 62
     3
100
AcDbLine
 10
290.3100000000001
 20
75.0
 30
0.0
 11
290.3100000000001
 21
80.0
 31
0.0
  0
LINE
  5
69
330
107
100
AcDbEntity
  8
1
 62
     3
100
AcDbLine
 10
289.5300000000001
 20
80.0
 30
0.0
 11
289.5300000000001
 21
75.0
 31
0.0
  0
LINE
  5
6A
330
107
100
AcDbEntity
  8
1
 62
     7
100
AcDbLine
 10
183.0
 20
35.0
 30
0.0
 11
183.0
 21
-35.0
 31
0.0
  0
LINE
  5
6B
330
107
100
AcDbEntity
  8
1
  6
DASHDOT
 62
     3
100
AcDbLine
 10
289.0
 20
32.99999999999999
 30
0.0
 11
289.0
 21
27.0
 31
0.0
  0
LINE
  5
6C
330
107
100
AcDbEntity
  8
1
  6
DASHDOT
 62
     3
100
AcDbLine
 10
289.0
 20
-32.99999999999995
 30
0.0
 11
289.0
 21
-27.00000000000005
 31
0.0
  0
LINE
  5
6D
330
107
100
AcDbEntity
  8
1
  6
DASHDOT
 62
     3
100
AcDbLine
 10
323.4692982456143
 20
0.0000000000000351
 30
0.0
 11
317.4692982456143
 21
0.0000000000000401
 31
0.0
  0
LINE
  5
6E
330
107
100
AcDbEntity
  8
1
 62
     3
100
AcDbLine
 10
287.6900000000003
 20
80.0
 30
0.0
 11
287.6900000000003
 21
75.0
 31
0.0
  0
LINE
  5
6F
330
107
100
AcDbEntity
  8
1
 62
     7
100
AcDbLine
 10
287.1600000000001
 20
75.0
 30
0.0
 11
287.1600000000001
 21
55.95542648950214
 31
0.0
  0
LINE
  5
70
330
107
100
AcDbEntity
  8
1
 62
     7
100
AcDbLine
 10
289.0
 20
75.0
 30
0.0
 11
289.0
 21
56.0
 31
0.0
  0
LINE
  5
71
330
107
100
AcDbEntity
  8
1
 62
     7
100
AcDbLine
 10
145.92
 20
43.66997290656099
 30
0.0
 11
145.92
 21
75.0
 31
0.0
  0
LINE
  5
72
330
107
100
AcDbEntity
  8
1
 62
     7
100
AcDbLine
 10
144.0800000000001
 20
43.66997290656099
 30
0.0
 11
144.08
 21
75.0
 31
0.0
  0
LINE
  5
73
330
107
100
AcDbEntity
  8
1
 62
     7
100
AcDbLine
 10
176.0
 20
43.0
 30
0.0
 11
176.0
 21
-43.0
 31
0.0
  0
LINE
  5
74
330
107
100
AcDbEntity
  8
1
 62
     7
100
AcDbLine
 10
177.0
 20
-35.0
 30
0.0
 11
177.0
 21
35.0
 31
0.0
  0
LINE
  5
75
330
107
100
AcDbEntity
  8
1
  6
DASHDOT
 62
     3
100
AcDbLine
 10
186.0000000000001
 20
0.0
 30
0.0
 11
196.0
 21
0.0
 31
0.0
  0
LINE
  5
76
330
107
100
AcDbEntity
  8
1
 62
     7
100
AcDbLine
 10
287.1600000000001
 20
75.0
 30
0.0
 11
290.8400000000003
 21
75.0
 31
0.0
  0
LINE
  5
77
330
107
100
AcDbEntity
  8
1
 62
     3
100
AcDbLine
 10
288.4700000000001
 20
80.0
 30
0.0
 11
288.4700000000001
 21
75.0
 31
0.0
  0
LINE
  5
78
330
107
100
AcDbEntity
  8
1
 62
     7
100
AcDbLine
 10
145.92
 20
75.0
 30
0.0
 11
144.08
 21
75.0
 31
0.0
  0
LINE
  5
79
330
107
100
AcDbEntity
  8
1
 62
     3
100
AcDbLine
 10
145.3900000000001
 20
80.0
 30
0.0
 11
145.3900000000001
 21
75.0
 31
0.0
  0
LINE
  5
7A
330
107
100
AcDbEntity
  8
1
 62
     3
100
AcDbLine
 10
144.6100000000001
 20
80.0
 30
0.0
 11
144.6100000000001
 21
75.0
 31
0.0
  0
LINE
  5
7B
330
107
100
AcDbEntity
  8
1
 62
     7
100
AcDbLine
 10
1.84
 20
75.0
 30
0.0
 11
1.84
 21
43.66997290656096
 31
0.0
  0
LINE
  5
7C
330
107
100
AcDbEntity
  8
1
 62
     3
100
AcDbLine
 10
1.31
 20
75.0
 30
0.0
 11
1.31
 21
80.0
 31
0.0
  0
LINE
  5
7D
330
107
100
AcDbEntity
  8
1
 62
     3
100
AcDbLine
 10
0.5299999999999999
 20
80.0
 30
0.0
 11
0.5299999999999999
 21
75.0
 31
0.0
  0
LINE
  5
7E
330
107
100
AcDbEntity
  8
1
 62
     3
100
AcDbLine
 10
-1.310000000000004
 20
80.0
 30
0.0
 11
-1.310000000000004
 21
75.0
 31
0.0
  0
LINE
  5
7F
330
107
100
AcDbEntity
  8
1
 62
     7
100
AcDbLine
 10
-1.84
 20
75.0
 30
0.0
 11
-1.84
 21
43.66997290656096
 31
0.0
  0
LINE
  5
80
330
107
100
AcDbEntity
  8
1
 62
     7
100
AcDbLine
 10
0.0
 20
75.0
 30
0.0
 11
0.0
 21
43.66997290656096
 31
0.0
  0
LINE
  5
81
330
107
100
AcDbEntity
  8
1
  6
DASHDOT
 62
     3
100
AcDbLine
 10
-1.5
 20
0.0
 30
0.0
 11
1.5
 21
0.0
 31
0.0
  0
LINE
  5
82
330
107
100
AcDbEntity
  8
1
  6
DASHDOT
 62
     3
100
AcDbLine
 10
0.0
 20
1.5
 30
0.0
 11
0.0
 21
-1.499999999999992
 31
0.0
  0
LINE
  5
83
330
107
100
AcDbEntity
  8
1
 62
     7
100
AcDbLine
 10
-1.84
 20
75.0
 30
0.0
 11
1.84
 21
75.0
 31
0.0
  0
LINE
  5
84
330
107
100
AcDbEntity
  8
1
 62
     3
100
AcDbLine
 10
-0.5299999999999999
 20
80.0
 30
0.0
 11
-0.5299999999999999
 21
75.0
 31
0.0
  0
LINE
  5
85
330
107
100
AcDbEntity
  8
1
 62
     7
100
AcDbLine
 10
-3.0
 20
43.66997290656096
 30
0.0
 11
3.0
 21
43.66997290656096
 31
0.0
  0
LINE
  5
86
330
107
100
AcDbEntity
  8
1
 62
     7
100
AcDbLine
 10
3.0
 20
43.66997290656096
 30
0.0
 11
3.0
 21
42.87468592766551
 31
0.0
  0
LINE
  5
87
330
107
100
AcDbEntity
  8
1
 62
     7
100
AcDbLine
 10
-3.0
 20
43.66997290656096
 30
0.0
 11
-3.0
 21
42.87468592766551
 31
0.0
  0
LINE
  5
88
330
107
100
AcDbEntity
  8
1
  6
DASHDOT
 62
     3
100
AcDbLine
 10
257.5000000000001
 20
0.0000000000000016
 30
0.0
 11
263.5
 21
0.0000000000000016
 31
0.0
  0
LINE
  5
89
330
107
100
AcDbEntity
  8
1
 62
     7
100
AcDbLine
 10
284.0000000000001
 20
-10.82952731034539
 30
0.0
 11
284.0000000000001
 21
-11.16794863550168
 31
0.0
  0
LINE
  5
8A
330
107
100
AcDbEntity
  8
1
 62
     7
100
AcDbLine
 10
286.2
 20
-13.36794863550169
 30
0.0
 11
288.2000000000001
 21
-13.36794863550169
 31
0.0
  0
LINE
  5
8B
330
107
100
AcDbEntity
  8
1
 62
     7
100
AcDbLine
 10
288.2000000000001
 20
-9.967948635501691
 30
0.0
 11
288.2000000000001
 21
-13.36794863550169
 31
0.0
  0
LINE
  5
8C
330
107
100
AcDbEntity
  8
1
 62
     7
100
AcDbLine
 10
289.8000000000001
 20
-13.36794863550169
 30
0.0
 11
289.8000000000001
 21
-9.967948635501691
 31
0.0
  0
LINE
  5
8D
330
107
100
AcDbEntity
  8
1
 62
     7
100
AcDbLine
 10
289.8000000000001
 20
-13.36794863550169
 30
0.0
 11
291.8000000000001
 21
-13.36794863550169
 31
0.0
  0
LINE
  5
8E
330
107
100
AcDbEntity
  8
1
 62
     7
100
AcDbLine
 10
294.0000000000001
 20
-11.16794863550168
 30
0.0
 11
294.0000000000001
 21
-10.82952731034539
 31
0.0
  0
LINE
  5
8F
330
107
100
AcDbEntity
  8
1
 62
     7
100
AcDbLine
 10
-5.0
 20
-10.82952731034539
 30
0.0
 11
-5.0
 21
-11.16794863550168
 31
0.0
  0
LINE
  5
90
330
107
100
AcDbEntity
  8
1
 62
     7
100
AcDbLine
 10
-2.799999999999996
 20
-13.36794863550169
 30
0.0
 11
-0.7999999999999972
 21
-13.36794863550169
 31
0.0
  0
LINE
  5
91
330
107
100
AcDbEntity
  8
1
 62
     7
100
AcDbLine
 10
-0.7999999999999972
 20
-9.967948635501691
 30
0.0
 11
-0.7999999999999972
 21
-13.36794863550169
 31
0.0
  0
LINE
  5
92
330
107
100
AcDbEntity
  8
1
 62
     7
100
AcDbLine
 10
0.7999999999999972
 20
-13.36794863550169
 30
0.0
 11
0.7999999999999972
 21
-9.967948635501691
 31
0.0
  0
LINE
  5
93
330
107
100
AcDbEntity
  8
1
 62
     7
100
AcDbLine
 10
0.7999999999999972
 20
-13.36794863550169
 30
0.0
 11
2.799999999999996
 21
-13.36794863550169
 31
0.0
  0
LINE
  5
94
330
107
100
AcDbEntity
  8
1
 62
     7
100
AcDbLine
 10
5.0
 20
-11.16794863550168
 30
0.0
 11
5.0
 21
-10.82952731034539
 31
0.0
  0
LINE
  5
95
330
107
100
AcDbEntity
  8
1
 62
     7
100
AcDbLine
 10
-1.699999999999995
 20
-30.2
 30
0.0
 11
-1.699999999999995
 21
-24.94213302827166
 31
0.0
  0
LINE
  5
96
330
107
100
AcDbEntity
  8
1
 62
     7
100
AcDbLine
 10
-1.699999999999995
 20
-30.2
 30
0.0
 11
-4.0
 21
-30.2
 31
0.0
  0
LINE
  5
97
330
107
100
AcDbEntity
  8
1
 62
     7
100
AcDbLine
 10
-6.799999999999998
 20
-27.24836278441639
 30
0.0
 11
-6.799999999999998
 21
-27.40000000000001
 31
0.0
  0
LINE
  5
98
330
107
100
AcDbEntity
  8
1
 62
     7
100
AcDbLine
 10
4.0
 20
-30.2
 30
0.0
 11
1.699999999999995
 21
-30.2
 31
0.0
  0
LINE
  5
99
330
107
100
AcDbEntity
  8
1
 62
     7
100
AcDbLine
 10
6.799999999999996
 20
-27.40000000000001
 30
0.0
 11
6.799999999999996
 21
-27.24836278441639
 31
0.0
  0
LINE
  5
9A
330
107
100
AcDbEntity
  8
1
 62
     7
100
AcDbLine
 10
1.699999999999995
 20
-24.94213302827166
 30
0.0
 11
1.699999999999995
 21
-30.2
 31
0.0
  0
LINE
  5
9B
330
107
100
AcDbEntity
  8
1
 62
     7
100
AcDbLine
 10
109.0
 20
-25.0
 30
0.0
 11
109.0
 21
25.0
 31
0.0
  0
ARC
  5
9C
330
107
100
AcDbEntity
  8
1
  6
DASHDOT
 62
     3
100
AcDbCircle
 10
0.0
 20
0.0
 30
0.0
 40
49.99999999999996
100
AcDbArc
 50
311.275118400936
 51
318.724881599064
  0
ARC
  5
9D
330
107
100
AcDbEntity
  8
1
  6
DASHDOT
 62
     3
100
AcDbCircle
 10
0.0
 20
0.0
 30
0.0
 40
50.0
100
AcDbArc
 50
221.275118400936
 51
228.7248815990639
  0
ARC
  5
9E
330
107
100
AcDbEntity
  8
1
  6
DASHDOT
 62
     3
100
AcDbCircle
 10
0.0
 20
0.0
 30
0.0
 40
50.0
100
AcDbArc
 50
131.2751184009359
 51
138.724881599064
  0
ARC
  5
9F
330
107
100
AcDbEntity
  8
1
  6
DASHDOT
 62
     3
100
AcDbCircle
 10
0.0
 20
0.0
 30
0.0
 40
50.0
100
AcDbArc
 50
41.27511840093601
 51
48.72488159906403
  0
ARC
  5
A0
330
107
100
AcDbEntity
  8
1
  6
DASHDOT
 62
     3
100
AcDbCircle
 10
290.4692982456142
 20
0.0
 30
0.0
 40
30.00000000000003
100
AcDbArc
 50
354.2680320348022
 51
5.731967965197723
  0
ARC
  5
A1
330
107
100
AcDbEntity
  8
1
  6
DASHDOT
 62
     3
100
AcDbCircle
 10
289.0
 20
0.0
 30
0.0
 40
30.0
100
AcDbArc
 50
264.2680320348023
 51
275.7319679651976
  0
ARC
  5
A2
330
107
100
AcDbEntity
  8
1
  6
DASHDOT
 62
     3
100
AcDbCircle
 10
289.0
 20
0.0
 30
0.0
 40
29.99999999999996
100
AcDbArc
 50
84.26803203480238
 51
95.73196796519772
  0
ARC
  5
A3
330
107
100
AcDbEntity
  8
1
  6
DASHDOT
 62
     3
100
AcDbCircle
 10
289.0
 20
0.0
 30
0.0
 40
50.0
100
AcDbArc
 50
41.27511840093601
 51
48.72488159906406
  0
ARC
  5
A4
330
107
100
AcDbEntity
  8
1
  6
DASHDOT
 62
     3
100
AcDbCircle
 10
289.0
 20
0.0
 30
0.0
 40
50.0
100
AcDbArc
 50
131.2751184009359
 51
138.724881599064
  0
ARC
  5
A5
330
107
100
AcDbEntity
  8
1
  6
DASHDOT
 62
     3
100
AcDbCircle
 10
289.0
 20
0.0
 30
0.0
 40
50.0
100
AcDbArc
 50
221.275118400936
 51
228.7248815990639
  0
ARC
  5
A6
330
107
100
AcDbEntity
  8
1
  6
DASHDOT
 62
     3
100
AcDbCircle
 10
289.0
 20
0.0
 30
0.0
 40
49.99999999999996
100
AcDbArc
 50
311.275118400936
 51
318.724881599064
  0
ARC
  5
A7
330
107
100
AcDbEntity
  8
1
  6
DASHDOT
 62
     3
100
AcDbCircle
 10
290.5000000000001
 20
0.0
 30
0.0
 40
30.00000000000001
100
AcDbArc
 50
174.2680320348023
 51
185.7319679651976
  0
ARC
  5
A8
330
107
100
AcDbEntity
  8
1
 62
     7
100
AcDbCircle
 10
289.0
 20
0.6999999999999959
 30
0.0
 40
11.30000000000001
100
AcDbArc
 50
302.6935772572697
 51
237.3064227427302
  0
ARC
  5
A9
330
107
100
AcDbEntity
  8
1
 62
     7
100
AcDbCircle
 10
0.0
 20
0.0
 30
0.0
 40
56.00000000000001
100
AcDbArc
 50
91.88291451278567
 51
88.11708548721432
  0
ARC
  5
AA
330
107
100
AcDbEntity
  8
1
 62
     7
100
AcDbCircle
 10
0.0
 20
0.6999999999999888
 30
0.0
 40
11.3
100
AcDbArc
 50
302.6935772572697
 51
237.3064227427302
  0
ARC
  5
AB
330
107
100
AcDbEntity
  8
1
 62
     7
100
AcDbCircle
 10
-4.0
 20
-27.40000000000001
 30
0.0
 40
2.799999999999996
100
AcDbArc
 50
180.0
 51
270.0
  0
ARC
  5
AC
330
107
100
AcDbEntity
  8
1
 62
     7
100
AcDbCircle
 10
-9.799999999999997
 20
-27.24836278441639
 30
0.0
 40
3.0
100
AcDbArc
 50
0.0
 51
70.8671758033137
  0
ARC
  5
AD
330
107
100
AcDbEntity
  8
1
 62
     7
100
AcDbCircle
 10
0.0
 20
1.0
 30
0.0
 40
26.90000000000002
100
AcDbArc
 50
289.1328241966868
 51
250.8671758033131
  0
ARC
  5
AE
330
107
100
AcDbEntity
  8
1
 62
     7
100
AcDbCircle
 10
4.0
 20
-27.40000000000001
 30
0.0
 40
2.79999999999999
100
AcDbArc
 50
270.0
 51
0.0
  0
ARC
  5
AF
330
107
100
AcDbEntity
  8
1
 62
     7
100
AcDbCircle
 10
9.799999999999997
 20
-27.24836278441639
 30
0.0
 40
2.999999999999987
100
AcDbArc
 50
109.1328241966869
 51
180.0
  0
ARC
  5
B0
330
107
100
AcDbEntity
  8
1
 62
     7
100
AcDbCircle
 10
286.2
 20
-11.16794863550168
 30
0.0
 40
2.199999999999988
100
AcDbArc
 50
180.0
 51
270.0
  0
ARC
  5
B1
330
107
100
AcDbEntity
  8
1
 62
     7
100
AcDbCircle
 10
281.6000000000001
 20
-10.82952731034539
 30
0.0
 40
2.400000000000034
100
AcDbArc
 50
0.0
 51
57.30642274272994
  0
ARC
  5
B2
330
107
100
AcDbEntity
  8
1
 62
     7
100
AcDbCircle
 10
296.4
 20
-10.82952731034539
 30
0.0
 40
2.39999999999998
100
AcDbArc
 50
122.6935772572692
 51
180.0
  0
ARC
  5
B3
330
107
100
AcDbEntity
  8
1
 62
     7
100
AcDbCircle
 10
291.8000000000001
 20
-11.16794863550168
 30
0.0
 40
2.2
100
AcDbArc
 50
270.0
 51
0.0
  0
ARC
  5
B4
330
107
100
AcDbEntity
  8
1
 62
     7
100
AcDbCircle
 10
-2.799999999999996
 20
-11.16794863550168
 30
0.0
 40
2.200000000000001
100
AcDbArc
 50
180.0
 51
270.0
  0
ARC
  5
B5
330
107
100
AcDbEntity
  8
1
 62
     7
100
AcDbCircle
 10
-7.399999999999996
 20
-10.82952731034539
 30
0.0
 40
2.399999999999999
100
AcDbArc
 50
0.0
 51
57.30642274273031
  0
ARC
  5
B6
330
107
100
AcDbEntity
  8
1
 62
     7
100
AcDbCircle
 10
7.399999999999996
 20
-10.82952731034539
 30
0.0
 40
2.399999999999995
100
AcDbArc
 50
122.6935772572696
 51
180.0
  0
ARC
  5
B7
330
107
100
AcDbEntity
  8
1
 62
     7
100
AcDbCircle
 10
2.799999999999996
 20
-11.16794863550168
 30
0.0
 40
2.2
100
AcDbArc
 50
270.0
 51
0.0
  0
CIRCLE
  5
B8
330
107
100
AcDbEntity
  8
1
 62
     7
100
AcDbCircle
 10
35.35533905932725
 20
-35.35533905932737
 30
0.0
 40
2.75
  0
CIRCLE
  5
B9
330
107
100
AcDbEntity
  8
1
 62
     7
100
AcDbCircle
 10
-35.3553390593274
 20
-35.35533905932732
 30
0.0
 40
2.75
  0
CIRCLE
  5
BA
330
107
100
AcDbEntity
  8
1
 62
     7
100
AcDbCircle
 10
-35.35533905932732
 20
35.35533905932735
 30
0.0
 40
2.75
  0
CIRCLE
  5
BB
330
107
100
AcDbEntity
  8
1
 62
     7
100
AcDbCircle
 10
35.35533905932725
 20
35.35533905932725
 30
0.0
 40
2.75
  0
CIRCLE
  5
BC
330
107
100
AcDbEntity
  8
1
 62
     7
100
AcDbCircle
 10
289.0
 20
0.0
 30
0.0
 40
10.0
  0
CIRCLE
  5
BD
330
107
100
AcDbEntity
  8
1
 62
     3
100
AcDbCircle
 10
100.0000000000001
 20
-0.0000000000000142
 30
0.0
 40
2.0
  0
CIRCLE
  5
BE
330
107
100
AcDbEntity
  8
1
 62
     7
100
AcDbCircle
 10
100.0000000000001
 20
-0.0000000000000142
 30
0.0
 40
1.620999999999994
  0
CIRCLE
  5
BF
330
107
100
AcDbEntity
  8
1
 62
     3
100
AcDbCircle
 10
189.0
 20
-0.0000000000000142
 30
0.0
 40
2.0
  0
CIRCLE
  5
C0
330
107
100
AcDbEntity
  8
1
 62
     7
100
AcDbCircle
 10
189.0
 20
-0.0000000000000142
 30
0.0
 40
1.62099999999998
  0
CIRCLE
  5
C1
330
107
100
AcDbEntity
  8
1
 62
     7
100
AcDbCircle
 10
289.0
 20
0.0
 30
0.0
 40
56.0
  0
CIRCLE
  5
C2
330
107
100
AcDbEntity
  8
1
 62
     7
100
AcDbCircle
 10
289.0
 20
0.0
 30
0.0
 40
6.0
  0
CIRCLE
  5
C3
330
107
100
AcDbEntity
  8
1
 62
     7
100
AcDbCircle
 10
253.6446609406727
 20
35.35533905932735
 30
0.0
 40
2.75
  0
CIRCLE
  5
C4
330
107
100
AcDbEntity
  8
1
 62
     7
100
AcDbCircle
 10
0.0
 20
0.0
 30
0.0
 40
6.0
  0
CIRCLE
  5
C5
330
107
100
AcDbEntity
  8
1
 62
     7
100
AcDbCircle
 10
289.0
 20
0.0
 30
0.0
 40
21.0
  0
CIRCLE
  5
C6
330
107
100
AcDbEntity
  8
1
 62
     7
100
AcDbCircle
 10
289.0
 20
0.0
 30
0.0
 40
43.0
  0
CIRCLE
  5
C7
330
107
100
AcDbEntity
  8
1
 62
     3
100
AcDbCircle
 10
289.0
 20
29.99999999999999
 30
0.0
 40
2.0
  0
CIRCLE
  5
C8
330
107
100
AcDbEntity
  8
1
 62
     3
100
AcDbCircle
 10
289.0
 20
-29.99999999999999
 30
0.0
 40
2.0
  0
CIRCLE
  5
C9
330
107
100
AcDbEntity
  8
1
 62
     3
100
AcDbCircle
 10
320.469298245614
 20
0.0
 30
0.0
 40
2.0
  0
CIRCLE
  5
CA
330
107
100
AcDbEntity
  8
1
 62
     7
100
AcDbCircle
 10
0.0
 20
0.0
 30
0.0
 40
25.0
  0
CIRCLE
  5
CB
330
107
100
AcDbEntity
  8
1
 62
     7
100
AcDbCircle
 10
0.0
 20
0.0
 30
0.0
 40
43.0
  0
CIRCLE
  5
CC
330
107
100
AcDbEntity
  8
1
 62
     7
100
AcDbCircle
 10
0.0
 20
0.0
 30
0.0
 40
21.0
  0
CIRCLE
  5
CD
330
107
100
AcDbEntity
  8
1
 62
     7
100
AcDbCircle
 10
289.0
 20
29.99999999999999
 30
0.0
 40
1.62099999999998
  0
CIRCLE
  5
CE
330
107
100
AcDbEntity
  8
1
 62
     7
100
AcDbCircle
 10
289.0
 20
-29.99999999999999
 30
0.0
 40
1.621000000000095
  0
CIRCLE
  5
CF
330
107
100
AcDbEntity
  8
1
 62
     7
100
AcDbCircle
 10
320.469298245614
 20
0.0
 30
0.0
 40
1.620999999999924
  0
CIRCLE
  5
D0
330
107
100
AcDbEntity
  8
1
 62
     3
100
AcDbCircle
 10
260.5
 20
0.0000000000000014
 30
0.0
 40
2.000000000000114
  0
CIRCLE
  5
D1
330
107
100
AcDbEntity
  8
1
 62
     7
100
AcDbCircle
 10
260.5
 20
0.0000000000000014
 30
0.0
 40
1.621000000000208
  0
CIRCLE
  5
D2
330
107
100
AcDbEntity
  8
1
 62
     7
100
AcDbCircle
 10
289.0
 20
0.0
 30
0.0
 40
35.0
  0
CIRCLE
  5
D3
330
107
100
AcDbEntity
  8
1
 62
     7
100
AcDbCircle
 10
0.0
 20
0.0
 30
0.0
 40
40.0
  0
CIRCLE
  5
D4
330
107
100
AcDbEntity
  8
1
 62
     7
100
AcDbCircle
 10
286.5307313306594
 20
-11.70534423212456
 30
0.0
 40
1.0
  0
CIRCLE
  5
D5
330
107
100
AcDbEntity
  8
1
 62
     7
100
AcDbCircle
 10
291.4692686693406
 20
-11.70534423212456
 30
0.0
 40
1.0
  0
CIRCLE
  5
D6
330
107
100
AcDbEntity
  8
1
 62
     7
100
AcDbCircle
 10
289.0
 20
0.0
 30
0.0
 40
40.0
  0
CIRCLE
  5
D7
330
107
100
AcDbEntity
  8
1
 62
     7
100
AcDbCircle
 10
0.0
 20
0.0
 30
0.0
 40
10.0
  0
CIRCLE
  5
D8
330
107
100
AcDbEntity
  8
1
 62
     7
100
AcDbCircle
 10
-2.469268669340563
 20
-11.70534423212456
 30
0.0
 40
1.0
  0
CIRCLE
  5
D9
330
107
100
AcDbEntity
  8
1
 62
     7
100
AcDbCircle
 10
2.469268669340563
 20
-11.70534423212456
 30
0.0
 40
1.0
  0
CIRCLE
  5
DA
330
107
100
AcDbEntity
  8
1
 62
     7
100
AcDbCircle
 10
-4.0
 20
-28.01985469369919
 30
0.0
 40
1.25
  0
CIRCLE
  5
DB
330
107
100
AcDbEntity
  8
1
 62
     7
100
AcDbCircle
 10
4.0
 20
-28.01985469369919
 30
0.0
 40
1.25
  0
CIRCLE
  5
DC
330
107
100
AcDbEntity
  8
1
 62
     7
100
AcDbCircle
 10
253.6446609406727
 20
-35.35533905932732
 30
0.0
 40
2.749999999999971
  0
CIRCLE
  5
DD
330
107
100
AcDbEntity
  8
1
 62
     7
100
AcDbCircle
 10
324.3553390593273
 20
-35.35533905932737
 30
0.0
 40
2.75
  0
CIRCLE
  5
DE
330
107
100
AcDbEntity
  8
1
 62
     7
100
AcDbCircle
 10
324.3553390593273
 20
35.35533905932725
 30
0.0
 40
2.75
  0
TEXT
  5
E0
330
107
100
AcDbEntity
  8
1
 62
     7
100
AcDbText
 10
-57.79165705636441
 20
84.329717457114
 30
0.0
 40
5.5
  1
OPC 40
 41
0.9
  7
SIMPLEX
 72
     1
 11
-44.0023713420787
 21
84.329717457114
 31
0.0
100
AcDbText
  0
ENDSEC
  0
SECTION
  2
OBJECTS
  0
DICTIONARY
  5
F3
330
0
100
AcDbDictionary
281
     1
  3
ACAD_COLOR
350
102
  3
ACAD_GROUP
350
F4
  3
ACAD_LAYOUT
350
100
  3
ACAD_MATERIAL
350
101
  3
ACAD_MLINESTYLE
350
FD
  3
ACAD_PLOTSETTINGS
350
FF
  3
ACAD_PLOTSTYLENAME
350
F5
  0
DICTIONARY
  5
102
102
{ACAD_REACTORS
330
F3
102
}
330
F3
100
AcDbDictionary
281
     1
  0
DICTIONARY
  5
F4
102
{ACAD_REACTORS
330
F3
102
}
330
F3
100
AcDbDictionary
281
     1
  0
DICTIONARY
  5
100
102
{ACAD_REACTORS
330
F3
102
}
330
F3
100
AcDbDictionary
281
     1
  3
Layout1
350
106
  3
Model
350
10A
  0
DICTIONARY
  5
101
102
{ACAD_REACTORS
330
F3
102
}
330
F3
100
AcDbDictionary
281
     1
  0
DICTIONARY
  5
FD
102
{ACAD_REACTORS
330
F3
102
}
330
F3
100
AcDbDictionary
281
     1
  3
Standard
350
FE
  0
DICTIONARY
  5
FF
102
{ACAD_REACTORS
330
F3
102
}
330
F3
100
AcDbDictionary
281
     1
  0
ACDBDICTIONARYWDFLT
  5
F5
102
{ACAD_REACTORS
330
F3
102
}
330
F3
100
AcDbDictionary
281
     1
  3
Normal
350
F6
100
AcDbDictionaryWithDefault
340
F6
  0
LAYOUT
  5
106
102
{ACAD_REACTORS
330
100
102
}
330
100
100
AcDbPlotSettings
  1

  2
\\Ogura1\HP Color LaserJet 4600 PCL 5c
  4

  6

 40
0.0
 41
0.0
 42
0.0
 43
0.0
 44
0.0
 45
0.0
 46
0.0
 47
0.0
 48
0.0
 49
0.0
140
0.0
141
0.0
142
1.0
143
1.0
 70
   688
 72
     0
 73
     0
 74
     5
  7

 75
    16
147
1.0
 76
     0
 77
     2
 78
   300
148
0.0
149
0.0
100
AcDbLayout
  1
Layout1
 70
     1
 71
     1
 10
0.0
 20
0.0
 11
12.0
 21
9.0
 12
0.0
 22
0.0
 32
0.0
 14
1.000000000000000E+20
 24
1.000000000000000E+20
 34
1.000000000000000E+20
 15
-1.000000000000000E+20
 25
-1.000000000000000E+20
 35
-1.000000000000000E+20
146
0.0
 13
0.0
 23
0.0
 33
0.0
 16
1.0
 26
0.0
 36
0.0
 17
0.0
 27
1.0
 37
0.0
 76
     0
330
103
  0
LAYOUT
  5
10A
102
{ACAD_REACTORS
330
100
102
}
330
100
100
AcDbPlotSettings
  1

  2
\\Ogura1\HP Color LaserJet 4600 PCL 5c
  4

  6

 40
0.0
 41
0.0
 42
0.0
 43
0.0
 44
0.0
 45
0.0
 46
0.0
 47
0.0
 48
0.0
 49
0.0
140
0.0
141
0.0
142
1.0
143
1.0
 70
  1712
 72
     0
 73
     0
 74
     0
  7

 75
     0
147
1.0
 76
     0
 77
     2
 78
   300
148
0.0
149
0.0
100
AcDbLayout
  1
Model
 70
     1
 71
     0
 10
0.0
 20
0.0
 11
12.0
 21
9.0
 12
0.0
 22
0.0
 32
0.0
 14
0.0
 24
0.0
 34
0.0
 15
0.0
 25
0.0
 35
0.0
146
0.0
 13
0.0
 23
0.0
 33
0.0
 16
1.0
 26
0.0
 36
0.0
 17
0.0
 27
1.0
 37
0.0
 76
     0
330
107
  0
MLINESTYLE
  5
FE
102
{ACAD_REACTORS
330
FD
102
}
330
FD
100
AcDbMlineStyle
  2
STANDARD
 70
     0
  3

 62
   256
 51
90.0
 52
90.0
 71
     2
 49
0.5
 62
   256
  6
BYLAYER
 49
-0.5
 62
   256
  6
BYLAYER
  0
ACDBPLACEHOLDER
  5
F6
102
{ACAD_REACTORS
330
F5
102
}
330
F5
  0
ENDSEC
  0
EOF
