  0
SECTION
  2
HEADER
  9
$ACADVER
  1
AC1018
  9
$ACADMAINTVER
 70
     0
  9
$DWGCODEPAGE
  3
ANSI_932
  9
$INSBASE
 10
0.0
 20
0.0
 30
0.0
  9
$EXTMIN
 10
-42.01303565800503
 20
-35.00306292644334
 30
-0.0015258207003583
  9
$EXTMAX
 10
258.00870162611
 20
65.37669487183066
 30
0.0000000349246037
  9
$LIMMIN
 10
-42.2787856055071
 20
-35.00000000000003
  9
$LIMMAX
 10
257.999537159785
 20
65.37363147798621
  9
$ORTHOMODE
 70
     0
  9
$REGENMODE
 70
     1
  9
$FILLMODE
 70
     1
  9
$QTEXTMODE
 70
     0
  9
$MIRRTEXT
 70
     1
  9
$LTSCALE
 40
1.0
  9
$ATTMODE
 70
     1
  9
$TEXTSIZE
 40
3.5
  9
$TRACEWID
 40
0.5
  9
$TEXTSTYLE
  7
STANDARD
  9
$CLAYER
  8
0
  9
$CELTYPE
  6
ByLayer
  9
$CECOLOR
 62
   256
  9
$CELTSCALE
 40
1.0
  9
$DISPSILH
 70
     0
  9
$DIMSCALE
 40
1.0
  9
$DIMASZ
 40
0.18
  9
$DIMEXO
 40
0.0625
  9
$DIMDLI
 40
0.38
  9
$DIMRND
 40
0.0
  9
$DIMDLE
 40
0.0
  9
$DIMEXE
 40
0.18
  9
$DIMTP
 40
0.0
  9
$DIMTM
 40
0.0
  9
$DIMTXT
 40
0.18
  9
$DIMCEN
 40
0.09
  9
$DIMTSZ
 40
0.0
  9
$DIMTOL
 70
     0
  9
$DIMLIM
 70
     0
  9
$DIMTIH
 70
     1
  9
$DIMTOH
 70
     1
  9
$DIMSE1
 70
     0
  9
$DIMSE2
 70
     0
  9
$DIMTAD
 70
     0
  9
$DIMZIN
 70
     0
  9
$DIMBLK
  1

  9
$DIMASO
 70
     1
  9
$DIMSHO
 70
     1
  9
$DIMPOST
  1

  9
$DIMAPOST
  1

  9
$DIMALT
 70
     0
  9
$DIMALTD
 70
     2
  9
$DIMALTF
 40
25.4
  9
$DIMLFAC
 40
1.0
  9
$DIMTOFL
 70
     0
  9
$DIMTVP
 40
0.0
  9
$DIMTIX
 70
     0
  9
$DIMSOXD
 70
     0
  9
$DIMSAH
 70
     0
  9
$DIMBLK1
  1

  9
$DIMBLK2
  1

  9
$DIMSTYLE
  2
STANDARD
  9
$DIMCLRD
 70
     0
  9
$DIMCLRE
 70
     0
  9
$DIMCLRT
 70
     0
  9
$DIMTFAC
 40
1.0
  9
$DIMGAP
 40
0.09
  9
$DIMJUST
 70
     0
  9
$DIMSD1
 70
     0
  9
$DIMSD2
 70
     0
  9
$DIMTOLJ
 70
     1
  9
$DIMTZIN
 70
     0
  9
$DIMALTZ
 70
     0
  9
$DIMALTTZ
 70
     0
  9
$DIMUPT
 70
     0
  9
$DIMDEC
 70
     4
  9
$DIMTDEC
 70
     4
  9
$DIMALTU
 70
     2
  9
$DIMALTTD
 70
     2
  9
$DIMTXSTY
  7
STANDARD
  9
$DIMAUNIT
 70
     0
  9
$DIMADEC
 70
     0
  9
$DIMALTRND
 40
0.0
  9
$DIMAZIN
 70
     0
  9
$DIMDSEP
 70
    46
  9
$DIMATFIT
 70
     3
  9
$DIMFRAC
 70
     0
  9
$DIMLDRBLK
  1

  9
$DIMLUNIT
 70
     2
  9
$DIMLWD
 70
    -2
  9
$DIMLWE
 70
    -2
  9
$DIMTMOVE
 70
     0
  9
$LUNITS
 70
     2
  9
$LUPREC
 70
     4
  9
$SKETCHINC
 40
0.1
  9
$FILLETRAD
 40
2.0
  9
$AUNITS
 70
     0
  9
$AUPREC
 70
     0
  9
$MENU
  1
ACAD
  9
$ELEVATION
 40
0.0
  9
$PELEVATION
 40
0.0
  9
$THICKNESS
 40
0.0
  9
$LIMCHECK
 70
     0
  9
$CHAMFERA
 40
0.0
  9
$CHAMFERB
 40
0.0
  9
$CHAMFERC
 40
0.0
  9
$CHAMFERD
 40
0.0
  9
$SKPOLY
 70
     0
  9
$TDCREATE
 40
2452095.112768866
  9
$TDUCREATE
 40
2452095.279435533
  9
$TDUPDATE
 40
2453209.453433299
  9
$TDUUPDATE
 40
2453209.620099965
  9
$TDINDWG
 40
0.0006850347
  9
$TDUSRTIMER
 40
0.0006848495
  9
$USRTIMER
 70
     1
  9
$ANGBASE
 50
0.0
  9
$ANGDIR
 70
     0
  9
$PDMODE
 70
     0
  9
$PDSIZE
 40
0.0
  9
$PLINEWID
 40
0.0
  9
$SPLFRAME
 70
     0
  9
$SPLINETYPE
 70
     6
  9
$SPLINESEGS
 70
     8
  9
$HANDSEED
  5
134
  9
$SURFTAB1
 70
     6
  9
$SURFTAB2
 70
     6
  9
$SURFTYPE
 70
     6
  9
$SURFU
 70
     6
  9
$SURFV
 70
     6
  9
$UCSBASE
  2

  9
$UCSNAME
  2

  9
$UCSORG
 10
0.0
 20
0.0
 30
0.0
  9
$UCSXDIR
 10
1.0
 20
0.0
 30
0.0
  9
$UCSYDIR
 10
0.0
 20
1.0
 30
0.0
  9
$UCSORTHOREF
  2

  9
$UCSORTHOVIEW
 70
     0
  9
$UCSORGTOP
 10
0.0
 20
0.0
 30
0.0
  9
$UCSORGBOTTOM
 10
0.0
 20
0.0
 30
0.0
  9
$UCSORGLEFT
 10
0.0
 20
0.0
 30
0.0
  9
$UCSORGRIGHT
 10
0.0
 20
0.0
 30
0.0
  9
$UCSORGFRONT
 10
0.0
 20
0.0
 30
0.0
  9
$UCSORGBACK
 10
0.0
 20
0.0
 30
0.0
  9
$PUCSBASE
  2

  9
$PUCSNAME
  2

  9
$PUCSORG
 10
0.0
 20
0.0
 30
0.0
  9
$PUCSXDIR
 10
1.0
 20
0.0
 30
0.0
  9
$PUCSYDIR
 10
0.0
 20
1.0
 30
0.0
  9
$PUCSORTHOREF
  2

  9
$PUCSORTHOVIEW
 70
     0
  9
$PUCSORGTOP
 10
0.0
 20
0.0
 30
0.0
  9
$PUCSORGBOTTOM
 10
0.0
 20
0.0
 30
0.0
  9
$PUCSORGLEFT
 10
0.0
 20
0.0
 30
0.0
  9
$PUCSORGRIGHT
 10
0.0
 20
0.0
 30
0.0
  9
$PUCSORGFRONT
 10
0.0
 20
0.0
 30
0.0
  9
$PUCSORGBACK
 10
0.0
 20
0.0
 30
0.0
  9
$USERI1
 70
     0
  9
$USERI2
 70
     0
  9
$USERI3
 70
     0
  9
$USERI4
 70
     0
  9
$USERI5
 70
     0
  9
$USERR1
 40
0.0
  9
$USERR2
 40
0.0
  9
$USERR3
 40
0.0
  9
$USERR4
 40
0.0
  9
$USERR5
 40
0.0
  9
$WORLDVIEW
 70
     1
  9
$SHADEDGE
 70
     3
  9
$SHADEDIF
 70
    70
  9
$TILEMODE
 70
     1
  9
$MAXACTVP
 70
    64
  9
$PINSBASE
 10
0.0
 20
0.0
 30
0.0
  9
$PLIMCHECK
 70
     0
  9
$PEXTMIN
 10
1.000000000000000E+20
 20
1.000000000000000E+20
 30
1.000000000000000E+20
  9
$PEXTMAX
 10
-1.000000000000000E+20
 20
-1.000000000000000E+20
 30
-1.000000000000000E+20
  9
$PLIMMIN
 10
0.0
 20
0.0
  9
$PLIMMAX
 10
12.0
 20
9.0
  9
$UNITMODE
 70
     0
  9
$VISRETAIN
 70
     1
  9
$PLINEGEN
 70
     0
  9
$PSLTSCALE
 70
     1
  9
$TREEDEPTH
 70
  3020
  9
$CMLSTYLE
  2
Standard
  9
$CMLJUST
 70
     0
  9
$CMLSCALE
 40
1.0
  9
$PROXYGRAPHICS
 70
     1
  9
$MEASUREMENT
 70
     0
  9
$CELWEIGHT
370
    -1
  9
$ENDCAPS
280
     0
  9
$JOINSTYLE
280
     0
  9
$LWDISPLAY
290
     0
  9
$INSUNITS
 70
     0
  9
$HYPERLINKBASE
  1

  9
$STYLESHEET
  1

  9
$XEDIT
290
     1
  9
$CEPSNTYPE
380
     0
  9
$PSTYLEMODE
290
     1
  9
$FINGERPRINTGUID
  2
{05539167-1B97-46CA-9984-BA2B8162F6BD}
  9
$VERSIONGUID
  2
{5EA2F5B4-EF23-4660-9573-125E72D899C4}
  9
$EXTNAMES
290
     1
  9
$PSVPSCALE
 40
0.0
  9
$OLESTARTUP
290
     0
  9
$SORTENTS
280
   127
  9
$INDEXCTL
280
     0
  9
$HIDETEXT
280
     0
  9
$XCLIPFRAME
290
     0
  9
$HALOGAP
280
     0
  9
$OBSCOLOR
 70
   257
  9
$OBSLTYPE
280
     0
  9
$INTERSECTIONDISPLAY
280
     0
  9
$INTERSECTIONCOLOR
 70
   257
  9
$DIMASSOC
280
     1
  9
$PROJECTNAME
  1

  0
ENDSEC
  0
SECTION
  2
CLASSES
  0
CLASS
  1
ACDBDICTIONARYWDFLT
  2
AcDbDictionaryWithDefault
  3
ObjectDBX Classes
 90
        0
 91
        1
280
     0
281
     0
  0
ENDSEC
  0
SECTION
  2
TABLES
  0
TABLE
  2
VPORT
  5
101
330
0
100
AcDbSymbolTable
 70
     2
  0
VPORT
  5
133
330
101
100
AcDbSymbolTableRecord
100
AcDbViewportTableRecord
  2
*Active
 70
     0
 10
0.0
 20
0.0
 11
1.0
 21
1.0
 12
107.9978329840524
 22
15.18681597269366
 13
0.0
 23
0.0
 14
1.0
 24
1.0
 15
0.0
 25
0.0
 16
0.0
 26
0.0
 36
1.0
 17
0.0
 27
0.0
 37
0.0
 40
185.6538835047959
 41
1.625
 42
50.0
 43
0.0
 44
0.0
 50
0.0
 51
0.0
 71
     0
 72
   100
 73
     1
 74
     1
 75
     0
 76
     0
 77
     0
 78
     0
281
     0
 65
     1
110
0.0
120
0.0
130
0.0
111
1.0
121
0.0
131
0.0
112
0.0
122
1.0
132
0.0
 79
     0
146
0.0
  0
ENDTAB
  0
TABLE
  2
LTYPE
  5
FE
330
0
100
AcDbSymbolTable
 70
     9
  0
LTYPE
  5
10C
330
FE
100
AcDbSymbolTableRecord
100
AcDbLinetypeTableRecord
  2
ByBlock
 70
     0
  3

 72
    65
 73
     0
 40
0.0
  0
LTYPE
  5
10D
330
FE
100
AcDbSymbolTableRecord
100
AcDbLinetypeTableRecord
  2
ByLayer
 70
     0
  3

 72
    65
 73
     0
 40
0.0
  0
LTYPE
  5
10E
330
FE
100
AcDbSymbolTableRecord
100
AcDbLinetypeTableRecord
  2
CONTINUOUS
 70
     0
  3
Solid line
 72
    65
 73
     0
 40
0.0
  0
LTYPE
  5
11E
330
FE
100
AcDbSymbolTableRecord
100
AcDbLinetypeTableRecord
  2
BORDER
 70
     0
  3
__ __ . __ __ .
 72
    65
 73
     6
 40
13.82860696945425
 49
3.951030562701212
 74
     0
 49
-1.975515281350606
 74
     0
 49
3.951030562701212
 74
     0
 49
-1.975515281350606
 74
     0
 49
0.0
 74
     0
 49
-1.975515281350606
 74
     0
  0
LTYPE
  5
11F
330
FE
100
AcDbSymbolTableRecord
100
AcDbLinetypeTableRecord
  2
CENTER
 70
     0
  3
____ _ ____ _
 72
    65
 73
     4
 40
15.80412225080484
 49
9.877576406753034
 74
     0
 49
-1.975515281350606
 74
     0
 49
1.975515281350606
 74
     0
 49
-1.975515281350606
 74
     0
  0
LTYPE
  5
120
330
FE
100
AcDbSymbolTableRecord
100
AcDbLinetypeTableRecord
  2
DASHDOT
 70
     0
  3
__ . __ . __ .
 72
    65
 73
     4
 40
7.902061125402426
 49
3.951030562701212
 74
     0
 49
-1.975515281350606
 74
     0
 49
0.0
 74
     0
 49
-1.975515281350606
 74
     0
  0
LTYPE
  5
121
330
FE
100
AcDbSymbolTableRecord
100
AcDbLinetypeTableRecord
  2
DASHED
 70
     0
  3
__ __ __ __ __
 72
    65
 73
     2
 40
5.92654584405182
 49
3.951030562701212
 74
     0
 49
-1.975515281350606
 74
     0
  0
LTYPE
  5
122
330
FE
100
AcDbSymbolTableRecord
100
AcDbLinetypeTableRecord
  2
DIVIDE
 70
     0
  3
__ . . __ . . 
 72
    65
 73
     6
 40
9.877576406753034
 49
3.951030562701212
 74
     0
 49
-1.975515281350606
 74
     0
 49
0.0
 74
     0
 49
-1.975515281350606
 74
     0
 49
0.0
 74
     0
 49
-1.975515281350606
 74
     0
  0
LTYPE
  5
123
330
FE
100
AcDbSymbolTableRecord
100
AcDbLinetypeTableRecord
  2
DOT
 70
     0
  3
..............
 72
    65
 73
     4
 40
3.951030562701212
 49
0.0
 74
     0
 49
-1.975515281350606
 74
     0
 49
0.0
 74
     0
 49
-1.975515281350606
 74
     0
  0
LTYPE
  5
124
330
FE
100
AcDbSymbolTableRecord
100
AcDbLinetypeTableRecord
  2
HIDDEN
 70
     0
  3
_ _ _ _ _ _ _
 72
    65
 73
     2
 40
2.96327292202591
 49
1.975515281350606
 74
     0
 49
-0.9877576406753034
 74
     0
  0
LTYPE
  5
125
330
FE
100
AcDbSymbolTableRecord
100
AcDbLinetypeTableRecord
  2
PHANTOM
 70
     0
  3
_____ _ _ _____ _ _ 
 72
    65
 73
     6
 40
19.75515281350606
 49
9.877576406753034
 74
     0
 49
-1.975515281350606
 74
     0
 49
1.975515281350606
 74
     0
 49
-1.975515281350606
 74
     0
 49
1.975515281350606
 74
     0
 49
-1.975515281350606
 74
     0
  0
ENDTAB
  0
TABLE
  2
LAYER
  5
FB
330
0
100
AcDbSymbolTable
 70
     2
  0
LAYER
  5
109
330
FB
100
AcDbSymbolTableRecord
100
AcDbLayerTableRecord
  2
0
 70
     0
 62
     7
  6
CONTINUOUS
370
    -3
390
108
  0
LAYER
  5
126
330
FB
100
AcDbSymbolTableRecord
100
AcDbLayerTableRecord
  2
1
 70
     0
 62
     7
  6
CONTINUOUS
370
    -3
390
108
  0
ENDTAB
  0
TABLE
  2
STYLE
  5
FC
330
0
100
AcDbSymbolTable
 70
     4
  0
STYLE
  5
10A
330
FC
100
AcDbSymbolTableRecord
100
AcDbTextStyleTableRecord
  2
STANDARD
 70
     0
 40
0.0
 41
1.0
 50
0.0
 71
     0
 42
3.5
  3
txt
  4

  0
STYLE
  5
127
330
FC
100
AcDbSymbolTableRecord
100
AcDbTextStyleTableRecord
  2
SIMPLEX
 70
     0
 40
0.0
 41
1.0
 50
0.0
 71
     0
 42
3.5
  3
simplex
  4

  0
STYLE
  5
128
330
FC
100
AcDbSymbolTableRecord
100
AcDbTextStyleTableRecord
  2
COMPLEX
 70
     0
 40
0.0
 41
1.0
 50
0.0
 71
     0
 42
3.5
  3
complex
  4

  0
STYLE
  5
129
330
FC
100
AcDbSymbolTableRecord
100
AcDbTextStyleTableRecord
  2
ITALIC
 70
     0
 40
0.0
 41
1.0
 50
0.0
 71
     0
 42
3.5
  3
italic
  4

  0
ENDTAB
  0
TABLE
  2
VIEW
  5
FF
330
0
100
AcDbSymbolTable
 70
     0
  0
ENDTAB
  0
TABLE
  2
UCS
  5
100
330
0
100
AcDbSymbolTable
 70
     0
  0
ENDTAB
  0
TABLE
  2
APPID
  5
102
330
0
100
AcDbSymbolTable
 70
     1
  0
APPID
  5
10B
330
102
100
AcDbSymbolTableRecord
100
AcDbRegAppTableRecord
  2
ACAD
 70
     0
  0
ENDTAB
  0
TABLE
  2
DIMSTYLE
  5
103
330
0
100
AcDbSymbolTable
 70
     1
100
AcDbDimStyleTable
 71
     0
  0
DIMSTYLE
105
12A
330
103
100
AcDbSymbolTableRecord
100
AcDbDimStyleTableRecord
  2
STANDARD
 70
     0
279
     2
340
10A
  0
ENDTAB
  0
TABLE
  2
BLOCK_RECORD
  5
FA
330
0
100
AcDbSymbolTable
 70
     2
  0
BLOCK_RECORD
  5
119
330
FA
100
AcDbSymbolTableRecord
100
AcDbBlockTableRecord
  2
*Model_Space
340
11C
  0
BLOCK_RECORD
  5
115
330
FA
100
AcDbSymbolTableRecord
100
AcDbBlockTableRecord
  2
*Paper_Space
340
118
  0
BLOCK_RECORD
  5
12F
330
FA
100
AcDbSymbolTableRecord
100
AcDbBlockTableRecord
  2
$MODEL_SPACE
340
0
  0
BLOCK_RECORD
  5
131
330
FA
100
AcDbSymbolTableRecord
100
AcDbBlockTableRecord
  2
$PAPER_SPACE
340
0
  0
ENDTAB
  0
ENDSEC
  0
SECTION
  2
BLOCKS
  0
BLOCK
  5
11A
330
119
100
AcDbEntity
  8
0
100
AcDbBlockBegin
  2
*Model_Space
 70
     0
 10
0.0
 20
0.0
 30
0.0
  3
*Model_Space
  1

  0
ENDBLK
  5
11B
330
119
100
AcDbEntity
  8
0
100
AcDbBlockEnd
  0
BLOCK
  5
116
330
115
100
AcDbEntity
 67
     1
  8
0
100
AcDbBlockBegin
  2
*Paper_Space
 70
     0
 10
0.0
 20
0.0
 30
0.0
  3
*Paper_Space
  1

  0
ENDBLK
  5
117
330
115
100
AcDbEntity
 67
     1
  8
0
100
AcDbBlockEnd
  0
BLOCK
  5
130
330
12F
100
AcDbEntity
  8
0
100
AcDbBlockBegin
  2
$MODEL_SPACE
 70
     0
 10
0.0
 20
0.0
 30
0.0
  3
$MODEL_SPACE
  1

  0
ENDBLK
  5
20
330
12F
100
AcDbEntity
  8
0
100
AcDbBlockEnd
  0
BLOCK
  5
132
330
131
100
AcDbEntity
  8
0
100
AcDbBlockBegin
  2
$PAPER_SPACE
 70
     0
 10
0.0
 20
0.0
 30
0.0
  3
$PAPER_SPACE
  1

  0
ENDBLK
  5
1C
330
131
100
AcDbEntity
  8
0
100
AcDbBlockEnd
  0
ENDSEC
  0
SECTION
  2
ENTITIES
  0
LINE
  5
33
330
119
100
AcDbEntity
  8
1
 62
     7
100
AcDbLine
 10
114.5
 20
25.66997290656098
 30
0.0
 11
114.5
 21
25.0
 31
0.0
  0
LINE
  5
34
330
119
100
AcDbEntity
  8
1
 62
     7
100
AcDbLine
 10
109.4999999999999
 20
25.66997290656098
 30
0.0
 11
114.5
 21
25.66997290656098
 31
0.0
  0
LINE
  5
35
330
119
100
AcDbEntity
  8
1
 62
     7
100
AcDbLine
 10
109.4999999999999
 20
25.66997290656098
 30
0.0
 11
109.4999999999999
 21
25.0
 31
0.0
  0
LINE
  5
36
330
119
100
AcDbEntity
  8
1
 62
     7
100
AcDbLine
 10
224.8395371597851
 20
50.0
 30
0.0
 11
224.8395371597851
 21
34.95160082170772
 31
0.0
  0
LINE
  5
37
330
119
100
AcDbEntity
  8
1
 62
     7
100
AcDbLine
 10
125.0
 20
25.0
 30
0.0
 11
133.4999999999998
 21
25.0
 31
0.0
  0
LINE
  5
38
330
119
100
AcDbEntity
  8
1
 62
     7
100
AcDbLine
 10
125.0
 20
35.0
 30
0.0
 11
125.0
 21
-35.0
 31
0.0
  0
LINE
  5
39
330
119
100
AcDbEntity
  8
1
 62
     7
100
AcDbLine
 10
121.0
 20
35.0
 30
0.0
 11
125.0
 21
35.0
 31
0.0
  0
LINE
  5
3A
330
119
100
AcDbEntity
  8
1
 62
     7
100
AcDbLine
 10
121.0
 20
35.0
 30
0.0
 11
121.0
 21
-35.0
 31
0.0
  0
LINE
  5
3B
330
119
100
AcDbEntity
  8
1
 62
     7
100
AcDbLine
 10
86.49999999999995
 20
25.0
 30
0.0
 11
121.0
 21
25.0
 31
0.0
  0
LINE
  5
3C
330
119
100
AcDbEntity
  8
1
 62
     7
100
AcDbLine
 10
121.0
 20
-25.0
 30
0.0
 11
86.49999999999995
 21
-25.0
 31
0.0
  0
LINE
  5
3D
330
119
100
AcDbEntity
  8
1
 62
     7
100
AcDbLine
 10
125.0
 20
-35.0
 30
0.0
 11
121.0
 21
-35.0
 31
0.0
  0
LINE
  5
3E
330
119
100
AcDbEntity
  8
1
 62
     7
100
AcDbLine
 10
133.4999999999998
 20
-25.0
 30
0.0
 11
125.0
 21
-25.0
 31
0.0
  0
LINE
  5
3F
330
119
100
AcDbEntity
  8
1
 62
     7
100
AcDbLine
 10
83.99999999999993
 20
-12.5
 30
0.0
 11
83.99999999999993
 21
12.5
 31
0.0
  0
LINE
  5
40
330
119
100
AcDbEntity
  8
1
 62
     7
100
AcDbLine
 10
85.29999999999994
 20
-12.5
 30
0.0
 11
83.99999999999993
 21
-12.5
 31
0.0
  0
LINE
  5
41
330
119
100
AcDbEntity
  8
1
 62
     7
100
AcDbLine
 10
83.99999999999993
 20
12.5
 30
0.0
 11
85.29999999999994
 21
12.5
 31
0.0
  0
LINE
  5
42
330
119
100
AcDbEntity
  8
1
 62
     3
100
AcDbLine
 10
82.00000000000001
 20
1.5
 30
0.0
 11
72.99999999999998
 21
-1.5
 31
0.0
  0
LINE
  5
43
330
119
100
AcDbEntity
  8
1
 62
     3
100
AcDbLine
 10
72.99999999999998
 20
1.5
 30
0.0
 11
82.00000000000001
 21
-1.5
 31
0.0
  0
LINE
  5
44
330
119
100
AcDbEntity
  8
1
 62
     7
100
AcDbLine
 10
82.00000000000001
 20
-1.5
 30
0.0
 11
72.99999999999998
 21
-1.5
 31
0.0
  0
LINE
  5
45
330
119
100
AcDbEntity
  8
1
 62
     7
100
AcDbLine
 10
82.00000000000001
 20
1.5
 30
0.0
 11
82.00000000000001
 21
-1.5
 31
0.0
  0
LINE
  5
46
330
119
100
AcDbEntity
  8
1
 62
     7
100
AcDbLine
 10
72.99999999999998
 20
1.5
 30
0.0
 11
82.00000000000001
 21
1.5
 31
0.0
  0
LINE
  5
47
330
119
100
AcDbEntity
  8
1
 62
     3
100
AcDbLine
 10
150.0
 20
1.5
 30
0.0
 11
141.0
 21
-1.5
 31
0.0
  0
LINE
  5
48
330
119
100
AcDbEntity
  8
1
 62
     3
100
AcDbLine
 10
141.0
 20
1.5
 30
0.0
 11
150.0
 21
-1.5
 31
0.0
  0
LINE
  5
49
330
119
100
AcDbEntity
  8
1
 62
     7
100
AcDbLine
 10
141.0
 20
-1.5
 30
0.0
 11
150.0
 21
-1.5
 31
0.0
  0
LINE
  5
4A
330
119
100
AcDbEntity
  8
1
 62
     7
100
AcDbLine
 10
141.0
 20
1.5
 30
0.0
 11
141.0
 21
-1.5
 31
0.0
  0
LINE
  5
4B
330
119
100
AcDbEntity
  8
1
 62
     7
100
AcDbLine
 10
150.0
 20
1.5
 30
0.0
 11
141.0
 21
1.5
 31
0.0
  0
LINE
  5
4C
330
119
100
AcDbEntity
  8
1
 62
     7
100
AcDbLine
 10
150.0
 20
-2.5
 30
0.0
 11
139.5
 21
-2.5
 31
0.0
  0
LINE
  5
4D
330
119
100
AcDbEntity
  8
1
 62
     7
100
AcDbLine
 10
150.0
 20
2.0
 30
0.0
 11
150.0
 21
-2.5
 31
0.0
  0
LINE
  5
4E
330
119
100
AcDbEntity
  8
1
 62
     7
100
AcDbLine
 10
141.0
 20
2.0
 30
0.0
 11
150.0
 21
2.0
 31
0.0
  0
LINE
  5
4F
330
119
100
AcDbEntity
  8
1
 62
     7
100
AcDbLine
 10
141.0
 20
2.5
 30
0.0
 11
141.0
 21
2.0
 31
0.0
  0
LINE
  5
50
330
119
100
AcDbEntity
  8
1
 62
     7
100
AcDbLine
 10
139.5
 20
2.5
 30
0.0
 11
141.0
 21
2.5
 31
0.0
  0
LINE
  5
51
330
119
100
AcDbEntity
  8
1
 62
     7
100
AcDbLine
 10
83.50000000000001
 20
-2.5
 30
0.0
 11
73.0
 21
-2.5
 31
0.0
  0
LINE
  5
52
330
119
100
AcDbEntity
  8
1
 62
     7
100
AcDbLine
 10
82.00000000000001
 20
2.5
 30
0.0
 11
83.50000000000001
 21
2.5
 31
0.0
  0
LINE
  5
53
330
119
100
AcDbEntity
  8
1
 62
     7
100
AcDbLine
 10
82.00000000000001
 20
2.0
 30
0.0
 11
82.00000000000001
 21
2.5
 31
0.0
  0
LINE
  5
54
330
119
100
AcDbEntity
  8
1
 62
     7
100
AcDbLine
 10
73.0
 20
2.0
 30
0.0
 11
82.00000000000001
 21
2.0
 31
0.0
  0
LINE
  5
55
330
119
100
AcDbEntity
  8
1
 62
     7
100
AcDbLine
 10
73.0
 20
-2.5
 30
0.0
 11
73.0
 21
2.0
 31
0.0
  0
LINE
  5
56
330
119
100
AcDbEntity
  8
1
 62
     7
100
AcDbLine
 10
134.0
 20
-20.0
 30
0.0
 11
139.0
 21
-20.0
 31
0.0
  0
LINE
  5
57
330
119
100
AcDbEntity
  8
1
 62
     7
100
AcDbLine
 10
133.4999999999998
 20
-18.0
 30
0.0
 11
134.0
 21
-18.0
 31
0.0
  0
LINE
  5
58
330
119
100
AcDbEntity
  8
1
  6
DASHDOT
 62
     3
100
AcDbLine
 10
70.0
 20
0.0
 30
0.0
 11
73.0
 21
0.0
 31
0.0
  0
LINE
  5
59
330
119
100
AcDbEntity
  8
1
 62
     7
100
AcDbLine
 10
134.0
 20
18.0
 30
0.0
 11
133.4999999999998
 21
18.0
 31
0.0
  0
LINE
  5
5A
330
119
100
AcDbEntity
  8
1
 62
     7
100
AcDbLine
 10
134.0
 20
20.0
 30
0.0
 11
134.0
 21
18.0
 31
0.0
  0
LINE
  5
5B
330
119
100
AcDbEntity
  8
1
 62
     7
100
AcDbLine
 10
139.0
 20
20.0
 30
0.0
 11
134.0
 21
20.0
 31
0.0
  0
LINE
  5
5C
330
119
100
AcDbEntity
  8
1
 62
     7
100
AcDbLine
 10
139.0
 20
3.625000000000016
 30
0.0
 11
139.5
 21
3.625000000000016
 31
0.0
  0
LINE
  5
5D
330
119
100
AcDbEntity
  8
1
 62
     7
100
AcDbLine
 10
139.5
 20
3.625000000000016
 30
0.0
 11
139.5
 21
-4.97171499166065
 31
0.0
  0
LINE
  5
5E
330
119
100
AcDbEntity
  8
1
 62
     7
100
AcDbLine
 10
139.5
 20
-4.97171499166065
 30
0.0
 11
139.0
 21
-4.97171499166065
 31
0.0
  0
LINE
  5
5F
330
119
100
AcDbEntity
  8
1
 62
     7
100
AcDbLine
 10
83.99999999999993
 20
3.625000000000016
 30
0.0
 11
83.50000000000001
 21
3.625000000000016
 31
0.0
  0
LINE
  5
60
330
119
100
AcDbEntity
  8
1
 62
     7
100
AcDbLine
 10
83.50000000000001
 20
3.625000000000016
 30
0.0
 11
83.50000000000001
 21
-4.97171499166065
 31
0.0
  0
LINE
  5
61
330
119
100
AcDbEntity
  8
1
 62
     7
100
AcDbLine
 10
83.50000000000001
 20
-4.97171499166065
 30
0.0
 11
83.99999999999993
 21
-4.97171499166065
 31
0.0
  0
LINE
  5
62
330
119
100
AcDbEntity
  8
1
 62
     7
100
AcDbLine
 10
86.49999999999995
 20
14.59999999999999
 30
0.0
 11
85.29999999999994
 21
14.59999999999999
 31
0.0
  0
LINE
  5
63
330
119
100
AcDbEntity
  8
1
 62
     7
100
AcDbLine
 10
85.29999999999994
 20
14.59999999999999
 30
0.0
 11
85.29999999999994
 21
-17.15616306954436
 31
0.0
  0
LINE
  5
64
330
119
100
AcDbEntity
  8
1
 62
     7
100
AcDbLine
 10
85.29999999999994
 20
-17.15616306954436
 30
0.0
 11
86.49999999999995
 21
-17.15616306954436
 31
0.0
  0
LINE
  5
65
330
119
100
AcDbEntity
  8
1
 62
     7
100
AcDbLine
 10
86.49999999999995
 20
25.0
 30
0.0
 11
86.49999999999995
 21
-25.0
 31
0.0
  0
LINE
  5
66
330
119
100
AcDbEntity
  8
1
 62
     3
100
AcDbLine
 10
224.309537159785
 20
50.0
 30
0.0
 11
224.309537159785
 21
55.0
 31
0.0
  0
LINE
  5
67
330
119
100
AcDbEntity
  8
1
 62
     3
100
AcDbLine
 10
223.529537159785
 20
55.0
 30
0.0
 11
223.529537159785
 21
50.0
 31
0.0
  0
LINE
  5
68
330
119
100
AcDbEntity
  8
1
 62
     7
100
AcDbLine
 10
139.0
 20
20.0
 30
0.0
 11
139.0
 21
-20.0
 31
0.0
  0
LINE
  5
69
330
119
100
AcDbEntity
  8
1
  6
DASHDOT
 62
     3
100
AcDbLine
 10
222.999537159785
 20
18.0
 30
0.0
 11
222.999537159785
 21
12.0
 31
0.0
  0
LINE
  5
6A
330
119
100
AcDbEntity
  8
1
  6
DASHDOT
 62
     3
100
AcDbLine
 10
207.4110798916652
 20
-8.999999999999991
 30
0.0
 11
212.6072323143718
 21
-5.999999999999992
 31
0.0
  0
LINE
  5
6B
330
119
100
AcDbEntity
  8
1
  6
DASHDOT
 62
     3
100
AcDbLine
 10
238.587994427905
 20
-8.999999999999998
 30
0.0
 11
233.3918420051983
 21
-5.999999999999992
 31
0.0
  0
LINE
  5
6C
330
119
100
AcDbEntity
  8
1
 62
     7
100
AcDbLine
 10
221.499537159785
 20
2.0
 30
0.0
 11
224.4995371597851
 21
2.0
 31
0.0
  0
LINE
  5
6D
330
119
100
AcDbEntity
  8
1
 62
     7
100
AcDbLine
 10
220.999537159785
 20
-1.499999999999992
 30
0.0
 11
220.999537159785
 21
1.500000000000006
 31
0.0
  0
LINE
  5
6E
330
119
100
AcDbEntity
  8
1
 62
     3
100
AcDbLine
 10
221.6895371597852
 20
55.0
 30
0.0
 11
221.6895371597852
 21
50.0
 31
0.0
  0
LINE
  5
6F
330
119
100
AcDbEntity
  8
1
 62
     7
100
AcDbLine
 10
221.1595371597851
 20
50.0
 30
0.0
 11
221.1595371597851
 21
34.95160082170772
 31
0.0
  0
LINE
  5
70
330
119
100
AcDbEntity
  8
1
 62
     7
100
AcDbLine
 10
222.999537159785
 20
50.0
 30
0.0
 11
222.999537159785
 21
35.0
 31
0.0
  0
LINE
  5
71
330
119
100
AcDbEntity
  8
1
 62
     7
100
AcDbLine
 10
225.2495371597849
 20
-3.72171499166065
 30
0.0
 11
225.2495371597849
 21
-2.909806164941142
 31
0.0
  0
LINE
  5
72
330
119
100
AcDbEntity
  8
1
 62
     7
100
AcDbLine
 10
223.374537159785
 20
-4.97171499166065
 30
0.0
 11
223.9995371597851
 21
-4.97171499166065
 31
0.0
  0
LINE
  5
73
330
119
100
AcDbEntity
  8
1
 62
     7
100
AcDbLine
 10
223.374537159785
 20
-4.97171499166065
 30
0.0
 11
223.374537159785
 21
-4.22171499166065
 31
0.0
  0
LINE
  5
74
330
119
100
AcDbEntity
  8
1
 62
     7
100
AcDbLine
 10
223.374537159785
 20
-4.22171499166065
 30
0.0
 11
223.937037159785
 21
-4.22171499166065
 31
0.0
  0
LINE
  5
75
330
119
100
AcDbEntity
  8
1
 62
     7
100
AcDbLine
 10
223.937037159785
 20
-2.846714991660646
 30
0.0
 11
223.374537159785
 21
-2.846714991660646
 31
0.0
  0
LINE
  5
76
330
119
100
AcDbEntity
  8
1
 62
     7
100
AcDbLine
 10
223.374537159785
 20
-2.846714991660646
 30
0.0
 11
223.374537159785
 21
-2.471714991660647
 31
0.0
  0
LINE
  5
77
330
119
100
AcDbEntity
  8
1
 62
     7
100
AcDbLine
 10
222.6245371597851
 20
-2.471714991660647
 30
0.0
 11
222.6245371597851
 21
-2.846714991660646
 31
0.0
  0
LINE
  5
78
330
119
100
AcDbEntity
  8
1
 62
     7
100
AcDbLine
 10
222.6245371597851
 20
-2.846714991660646
 30
0.0
 11
222.062037159785
 21
-2.846714991660646
 31
0.0
  0
LINE
  5
79
330
119
100
AcDbEntity
  8
1
 62
     7
100
AcDbLine
 10
222.062037159785
 20
-4.22171499166065
 30
0.0
 11
222.6245371597851
 21
-4.22171499166065
 31
0.0
  0
LINE
  5
7A
330
119
100
AcDbEntity
  8
1
 62
     7
100
AcDbLine
 10
222.6245371597851
 20
-4.22171499166065
 30
0.0
 11
222.6245371597851
 21
-4.97171499166065
 31
0.0
  0
LINE
  5
7B
330
119
100
AcDbEntity
  8
1
 62
     7
100
AcDbLine
 10
221.9995371597851
 20
-4.97171499166065
 30
0.0
 11
222.6245371597851
 21
-4.97171499166065
 31
0.0
  0
LINE
  5
7C
330
119
100
AcDbEntity
  8
1
 62
     7
100
AcDbLine
 10
220.749537159785
 20
-2.909806164941142
 30
0.0
 11
220.749537159785
 21
-3.72171499166065
 31
0.0
  0
LINE
  5
7D
330
119
100
AcDbEntity
  8
1
 62
     7
100
AcDbLine
 10
112.9199999999999
 20
25.66997290656098
 30
0.0
 11
112.9199999999999
 21
50.0
 31
0.0
  0
LINE
  5
7E
330
119
100
AcDbEntity
  8
1
 62
     7
100
AcDbLine
 10
111.08
 20
25.66997290656098
 30
0.0
 11
111.0799999999999
 21
50.0
 31
0.0
  0
LINE
  5
7F
330
119
100
AcDbEntity
  8
1
 62
     7
100
AcDbLine
 10
133.4999999999998
 20
25.0
 30
0.0
 11
133.4999999999998
 21
-25.0
 31
0.0
  0
LINE
  5
80
330
119
100
AcDbEntity
  8
1
 62
     7
100
AcDbLine
 10
134.0
 20
18.0
 30
0.0
 11
134.0
 21
-20.0
 31
0.0
  0
LINE
  5
81
330
119
100
AcDbEntity
  8
1
  6
DASHDOT
 62
     3
100
AcDbLine
 10
150.0
 20
0.0
 30
0.0
 11
153.0
 21
0.0
 31
0.0
  0
LINE
  5
82
330
119
100
AcDbEntity
  8
1
  6
DASHDOT
 62
     3
100
AcDbLine
 10
221.499537159785
 20
0.0
 30
0.0
 11
224.4995371597851
 21
0.0
 31
0.0
  0
LINE
  5
83
330
119
100
AcDbEntity
  8
1
  6
DASHDOT
 62
     3
100
AcDbLine
 10
222.999537159785
 20
1.5
 30
0.0
 11
222.999537159785
 21
-1.5
 31
0.0
  0
LINE
  5
84
330
119
100
AcDbEntity
  8
1
 62
     7
100
AcDbLine
 10
221.1595371597851
 20
50.0
 30
0.0
 11
224.8395371597851
 21
50.0
 31
0.0
  0
LINE
  5
85
330
119
100
AcDbEntity
  8
1
 62
     3
100
AcDbLine
 10
222.469537159785
 20
55.0
 30
0.0
 11
222.469537159785
 21
50.0
 31
0.0
  0
LINE
  5
86
330
119
100
AcDbEntity
  8
1
  6
DASHDOT
 62
     3
100
AcDbLine
 10
246.5108376342378
 20
23.51130047445271
 30
0.0
 11
241.9146435565251
 21
18.91510639674015
 31
0.0
  0
LINE
  5
87
330
119
100
AcDbEntity
  8
1
  6
DASHDOT
 62
     3
100
AcDbLine
 10
199.4882366853324
 20
23.51130047445271
 30
0.0
 11
204.0844307630448
 21
18.91510639674017
 31
0.0
  0
LINE
  5
88
330
119
100
AcDbEntity
  8
1
  6
DASHDOT
 62
     3
100
AcDbLine
 10
199.4882366853324
 20
-23.51130047445269
 30
0.0
 11
204.0844307630448
 21
-18.91510639674013
 31
0.0
  0
LINE
  5
89
330
119
100
AcDbEntity
  8
1
  6
DASHDOT
 62
     3
100
AcDbLine
 10
246.5108376342378
 20
-23.51130047445269
 30
0.0
 11
241.9146435565251
 21
-18.91510639674015
 31
0.0
  0
LINE
  5
8A
330
119
100
AcDbEntity
  8
1
 62
     7
100
AcDbLine
 10
112.9199999999999
 20
50.0
 30
0.0
 11
111.0799999999999
 21
50.0
 31
0.0
  0
LINE
  5
8B
330
119
100
AcDbEntity
  8
1
 62
     3
100
AcDbLine
 10
112.39
 20
55.0
 30
0.0
 11
112.39
 21
50.0
 31
0.0
  0
LINE
  5
8C
330
119
100
AcDbEntity
  8
1
 62
     3
100
AcDbLine
 10
111.61
 20
55.0
 30
0.0
 11
111.61
 21
50.0
 31
0.0
  0
LINE
  5
8D
330
119
100
AcDbEntity
  8
1
 62
     7
100
AcDbLine
 10
1.84
 20
50.0
 30
0.0
 11
1.84
 21
25.66997290656098
 31
0.0
  0
LINE
  5
8E
330
119
100
AcDbEntity
  8
1
 62
     3
100
AcDbLine
 10
1.31
 20
50.0
 30
0.0
 11
1.31
 21
55.0
 31
0.0
  0
LINE
  5
8F
330
119
100
AcDbEntity
  8
1
 62
     3
100
AcDbLine
 10
0.5299999999999999
 20
55.0
 30
0.0
 11
0.5299999999999999
 21
50.0
 31
0.0
  0
LINE
  5
90
330
119
100
AcDbEntity
  8
1
 62
     7
100
AcDbLine
 10
-1.5
 20
2.0
 30
0.0
 11
1.5
 21
2.0
 31
0.0
  0
LINE
  5
91
330
119
100
AcDbEntity
  8
1
 62
     7
100
AcDbLine
 10
2.0
 20
1.500000000000006
 30
0.0
 11
2.0
 21
-1.499999999999992
 31
0.0
  0
LINE
  5
92
330
119
100
AcDbEntity
  8
1
 62
     3
100
AcDbLine
 10
-1.310000000000004
 20
55.0
 30
0.0
 11
-1.31
 21
50.0
 31
0.0
  0
LINE
  5
93
330
119
100
AcDbEntity
  8
1
 62
     7
100
AcDbLine
 10
-1.84
 20
50.0
 30
0.0
 11
-1.84
 21
25.66997290656098
 31
0.0
  0
LINE
  5
94
330
119
100
AcDbEntity
  8
1
 62
     7
100
AcDbLine
 10
0.0
 20
50.0
 30
0.0
 11
0.0
 21
25.66997290656098
 31
0.0
  0
LINE
  5
95
330
119
100
AcDbEntity
  8
1
 62
     7
100
AcDbLine
 10
2.249999999999949
 20
-3.72171499166065
 30
0.0
 11
2.249999999999949
 21
-2.909806164941142
 31
0.0
  0
LINE
  5
96
330
119
100
AcDbEntity
  8
1
 62
     7
100
AcDbLine
 10
0.3749999999999503
 20
-4.97171499166065
 30
0.0
 11
0.9999999999999504
 21
-4.97171499166065
 31
0.0
  0
LINE
  5
97
330
119
100
AcDbEntity
  8
1
 62
     7
100
AcDbLine
 10
0.3749999999999503
 20
-4.97171499166065
 30
0.0
 11
0.3749999999999503
 21
-4.22171499166065
 31
0.0
  0
LINE
  5
98
330
119
100
AcDbEntity
  8
1
 62
     7
100
AcDbLine
 10
0.3749999999999503
 20
-4.22171499166065
 30
0.0
 11
0.9375
 21
-4.22171499166065
 31
0.0
  0
LINE
  5
99
330
119
100
AcDbEntity
  8
1
 62
     7
100
AcDbLine
 10
0.9375
 20
-2.846714991660646
 30
0.0
 11
0.3749999999999503
 21
-2.846714991660646
 31
0.0
  0
LINE
  5
9A
330
119
100
AcDbEntity
  8
1
 62
     7
100
AcDbLine
 10
0.3749999999999503
 20
-2.846714991660646
 30
0.0
 11
0.3749999999999503
 21
-2.471714991660647
 31
0.0
  0
LINE
  5
9B
330
119
100
AcDbEntity
  8
1
 62
     7
100
AcDbLine
 10
-0.375
 20
-2.471714991660647
 30
0.0
 11
-0.375
 21
-2.846714991660646
 31
0.0
  0
LINE
  5
9C
330
119
100
AcDbEntity
  8
1
 62
     7
100
AcDbLine
 10
-0.375
 20
-2.846714991660646
 30
0.0
 11
-0.9375
 21
-2.846714991660646
 31
0.0
  0
LINE
  5
9D
330
119
100
AcDbEntity
  8
1
 62
     7
100
AcDbLine
 10
-0.9375
 20
-4.22171499166065
 30
0.0
 11
-0.375
 21
-4.22171499166065
 31
0.0
  0
LINE
  5
9E
330
119
100
AcDbEntity
  8
1
 62
     7
100
AcDbLine
 10
-0.375
 20
-4.22171499166065
 30
0.0
 11
-0.375
 21
-4.97171499166065
 31
0.0
  0
LINE
  5
9F
330
119
100
AcDbEntity
  8
1
 62
     7
100
AcDbLine
 10
-1.000000000000049
 20
-4.97171499166065
 30
0.0
 11
-0.375
 21
-4.97171499166065
 31
0.0
  0
LINE
  5
A0
330
119
100
AcDbEntity
  8
1
 62
     7
100
AcDbLine
 10
-2.25
 20
-2.909806164941142
 30
0.0
 11
-2.25
 21
-3.72171499166065
 31
0.0
  0
LINE
  5
A1
330
119
100
AcDbEntity
  8
1
  6
DASHDOT
 62
     3
100
AcDbLine
 10
-1.5
 20
0.0
 30
0.0
 11
1.5
 21
0.0
 31
0.0
  0
LINE
  5
A2
330
119
100
AcDbEntity
  8
1
  6
DASHDOT
 62
     3
100
AcDbLine
 10
0.0
 20
1.5
 30
0.0
 11
0.0
 21
-1.499999999999992
 31
0.0
  0
LINE
  5
A3
330
119
100
AcDbEntity
  8
1
 62
     7
100
AcDbLine
 10
-1.84
 20
50.0
 30
0.0
 11
1.84
 21
50.0
 31
0.0
  0
LINE
  5
A4
330
119
100
AcDbEntity
  8
1
 62
     3
100
AcDbLine
 10
-0.5299999999999999
 20
55.0
 30
0.0
 11
-0.5299999999999999
 21
50.0
 31
0.0
  0
LINE
  5
A5
330
119
100
AcDbEntity
  8
1
  6
DASHDOT
 62
     3
100
AcDbLine
 10
23.51130047445269
 20
23.51130047445271
 30
0.0
 11
18.91510639674016
 21
18.91510639674015
 31
0.0
  0
LINE
  5
A6
330
119
100
AcDbEntity
  8
1
  6
DASHDOT
 62
     3
100
AcDbLine
 10
-23.51130047445269
 20
23.51130047445271
 30
0.0
 11
-18.91510639674015
 21
18.91510639674017
 31
0.0
  0
LINE
  5
A7
330
119
100
AcDbEntity
  8
1
  6
DASHDOT
 62
     3
100
AcDbLine
 10
-23.51130047445269
 20
-23.51130047445269
 30
0.0
 11
-18.91510639674015
 21
-18.91510639674013
 31
0.0
  0
LINE
  5
A8
330
119
100
AcDbEntity
  8
1
  6
DASHDOT
 62
     3
100
AcDbLine
 10
23.51130047445267
 20
-23.51130047445269
 30
0.0
 11
18.91510639674012
 21
-18.91510639674015
 31
0.0
  0
LINE
  5
A9
330
119
100
AcDbEntity
  8
1
 62
     7
100
AcDbLine
 10
-2.5
 20
25.66997290656098
 30
0.0
 11
2.5
 21
25.66997290656098
 31
0.0
  0
LINE
  5
AA
330
119
100
AcDbEntity
  8
1
 62
     7
100
AcDbLine
 10
2.5
 20
25.66997290656098
 30
0.0
 11
2.5
 21
24.8746859276655
 31
0.0
  0
LINE
  5
AB
330
119
100
AcDbEntity
  8
1
 62
     7
100
AcDbLine
 10
-2.5
 20
25.66997290656098
 30
0.0
 11
-2.5
 21
24.8746859276655
 31
0.0
  0
LINE
  5
AC
330
119
100
AcDbEntity
  8
1
 62
     7
100
AcDbLine
 10
5.599999999999993
 20
-13.77497826085313
 30
0.0
 11
5.599999999999993
 21
-14.85616306954437
 31
0.0
  0
LINE
  5
AD
330
119
100
AcDbEntity
  8
1
 62
     7
100
AcDbLine
 10
0.7999999999999972
 20
-17.15616306954436
 30
0.0
 11
3.299999999999996
 21
-17.15616306954436
 31
0.0
  0
LINE
  5
AE
330
119
100
AcDbEntity
  8
1
 62
     7
100
AcDbLine
 10
0.7999999999999972
 20
-17.15616306954436
 30
0.0
 11
0.7999999999999972
 21
-12.47437373177507
 31
0.0
  0
LINE
  5
AF
330
119
100
AcDbEntity
  8
1
 62
     7
100
AcDbLine
 10
-0.7999999999999972
 20
-12.47437373177507
 30
0.0
 11
-0.7999999999999972
 21
-17.15616306954436
 31
0.0
  0
LINE
  5
B0
330
119
100
AcDbEntity
  8
1
 62
     7
100
AcDbLine
 10
-3.299999999999996
 20
-17.15616306954436
 30
0.0
 11
-0.7999999999999972
 21
-17.15616306954436
 31
0.0
  0
LINE
  5
B1
330
119
100
AcDbEntity
  8
1
 62
     7
100
AcDbLine
 10
-5.599999999999993
 20
-14.85616306954437
 30
0.0
 11
-5.599999999999993
 21
-13.77497826085313
 31
0.0
  0
LINE
  5
B2
330
119
100
AcDbEntity
  8
1
 62
     3
100
AcDbLine
 10
223.919537159785
 20
50.0
 30
0.0
 11
223.919537159785
 21
55.0
 31
0.0
  0
LINE
  5
B3
330
119
100
AcDbEntity
  8
1
 62
     3
100
AcDbLine
 10
222.0795371597851
 20
55.0
 30
0.0
 11
222.0795371597851
 21
50.0
 31
0.0
  0
LINE
  5
B4
330
119
100
AcDbEntity
  8
1
 62
     3
100
AcDbLine
 10
112.0
 20
55.0
 30
0.0
 11
112.0
 21
50.0
 31
0.0
  0
LINE
  5
B5
330
119
100
AcDbEntity
  8
1
 62
     3
100
AcDbLine
 10
-0.9200000000000148
 20
55.0
 30
0.0
 11
-0.9200000000000148
 21
50.0
 31
0.0
  0
LINE
  5
B6
330
119
100
AcDbEntity
  8
1
 62
     3
100
AcDbLine
 10
0.9199999999999851
 20
50.0
 30
0.0
 11
0.9199999999999851
 21
55.0
 31
0.0
  0
ARC
  5
B7
330
119
100
AcDbEntity
  8
1
 62
     7
100
AcDbCircle
 10
223.9995371597851
 20
-3.72171499166065
 30
0.0
 40
1.25
100
AcDbArc
 50
270.0
 51
0.0
  0
ARC
  5
B8
330
119
100
AcDbEntity
  8
1
 62
     7
100
AcDbCircle
 10
226.874537159785
 20
-2.909806164941142
 30
0.0
 40
1.625000000000006
100
AcDbArc
 50
140.805032574017
 51
180.0
  0
ARC
  5
B9
330
119
100
AcDbEntity
  8
1
 62
     7
100
AcDbCircle
 10
219.1245371597851
 20
-2.909806164941142
 30
0.0
 40
1.625
100
AcDbArc
 50
0.0
 51
39.19496742598551
  0
ARC
  5
BA
330
119
100
AcDbEntity
  8
1
 62
     7
100
AcDbCircle
 10
221.9995371597851
 20
-3.72171499166065
 30
0.0
 40
1.25
100
AcDbArc
 50
180.0
 51
270.0
  0
ARC
  5
BB
330
119
100
AcDbEntity
  8
1
 62
     7
100
AcDbCircle
 10
0.9999999999999504
 20
-3.72171499166065
 30
0.0
 40
1.25
100
AcDbArc
 50
270.0
 51
0.0
  0
ARC
  5
BC
330
119
100
AcDbEntity
  8
1
 62
     7
100
AcDbCircle
 10
3.874999999999948
 20
-2.909806164941142
 30
0.0
 40
1.624999999999985
100
AcDbArc
 50
140.8050325740166
 51
180.0
  0
ARC
  5
BD
330
119
100
AcDbEntity
  8
1
 62
     7
100
AcDbCircle
 10
-3.875
 20
-2.909806164941142
 30
0.0
 40
1.625
100
AcDbArc
 50
0.0
 51
39.19496742598345
  0
ARC
  5
BE
330
119
100
AcDbEntity
  8
1
 62
     7
100
AcDbCircle
 10
-1.000000000000049
 20
-3.72171499166065
 30
0.0
 40
1.24999999999995
100
AcDbArc
 50
180.0
 51
270.0
  0
ARC
  5
BF
330
119
100
AcDbEntity
  8
1
 62
     7
100
AcDbCircle
 10
8.099999999999994
 20
-13.77497826085313
 30
0.0
 40
2.499999999999996
100
AcDbArc
 50
119.4003510102127
 51
180.0
  0
ARC
  5
C0
330
119
100
AcDbEntity
  8
1
 62
     7
100
AcDbCircle
 10
3.299999999999996
 20
-14.85616306954437
 30
0.0
 40
2.299999999999998
100
AcDbArc
 50
270.0
 51
0.0
  0
ARC
  5
C1
330
119
100
AcDbEntity
  8
1
 62
     7
100
AcDbCircle
 10
-3.299999999999996
 20
-14.85616306954437
 30
0.0
 40
2.299999999999996
100
AcDbArc
 50
180.0
 51
270.0
  0
ARC
  5
C2
330
119
100
AcDbEntity
  8
1
 62
     7
100
AcDbCircle
 10
-8.099999999999994
 20
-13.77497826085313
 30
0.0
 40
2.5
100
AcDbArc
 50
0.0
 51
60.59964898978716
  0
ARC
  5
C3
330
119
100
AcDbEntity
  8
1
 62
     7
100
AcDbCircle
 10
0.0
 20
0.0
 30
0.0
 40
35.0
100
AcDbArc
 50
93.01351016931901
 51
86.98648983068098
  0
ARC
  5
C4
330
119
100
AcDbEntity
  8
1
 62
     7
100
AcDbCircle
 10
223.937037159785
 20
-3.534214991660648
 30
0.0
 40
0.6875000000000009
100
AcDbArc
 50
270.0
 51
90.0
  0
ARC
  5
C5
330
119
100
AcDbEntity
  8
1
 62
     7
100
AcDbCircle
 10
222.062037159785
 20
-3.534214991660648
 30
0.0
 40
0.6875000000000015
100
AcDbArc
 50
90.0
 51
270.0
  0
ARC
  5
C6
330
119
100
AcDbEntity
  8
1
 62
     7
100
AcDbCircle
 10
222.999537159785
 20
0.25
 30
0.0
 40
3.374999999999932
100
AcDbArc
 50
320.805032574016
 51
219.1949674259817
  0
ARC
  5
C7
330
119
100
AcDbEntity
  8
1
  6
DASHDOT
 62
     3
100
AcDbCircle
 10
222.999537159785
 20
0.0
 30
0.0
 40
15.0
100
AcDbArc
 50
78.52165904546621
 51
101.4783409545337
  0
ARC
  5
C8
330
119
100
AcDbEntity
  8
1
  6
DASHDOT
 62
     3
100
AcDbCircle
 10
222.999537159785
 20
0.0
 30
0.0
 40
15.0
100
AcDbArc
 50
318.5216590454663
 51
341.4783409545337
  0
ARC
  5
C9
330
119
100
AcDbEntity
  8
1
  6
DASHDOT
 62
     3
100
AcDbCircle
 10
222.999537159785
 20
0.0
 30
0.0
 40
15.00000000000001
100
AcDbArc
 50
198.5216590454664
 51
221.478340954534
  0
ARC
  5
CA
330
119
100
AcDbEntity
  8
1
  6
DASHDOT
 62
     3
100
AcDbCircle
 10
222.999537159785
 20
0.0
 30
0.0
 40
29.99999999999998
100
AcDbArc
 50
38.7899179322388
 51
51.21008206776107
  0
ARC
  5
CB
330
119
100
AcDbEntity
  8
1
  6
DASHDOT
 62
     3
100
AcDbCircle
 10
222.999537159785
 20
0.0
 30
0.0
 40
30.00000000000005
100
AcDbArc
 50
128.7899179322387
 51
141.2100820677613
  0
ARC
  5
CC
330
119
100
AcDbEntity
  8
1
  6
DASHDOT
 62
     3
100
AcDbCircle
 10
222.999537159785
 20
0.0
 30
0.0
 40
30.00000000000003
100
AcDbArc
 50
218.7899179322386
 51
231.210082067761
  0
ARC
  5
CD
330
119
100
AcDbEntity
  8
1
  6
DASHDOT
 62
     3
100
AcDbCircle
 10
222.999537159785
 20
0.0
 30
0.0
 40
30.00000000000009
100
AcDbArc
 50
308.7899179322387
 51
321.2100820677612
  0
ARC
  5
CE
330
119
100
AcDbEntity
  8
1
 62
     7
100
AcDbCircle
 10
0.9375
 20
-3.534214991660648
 30
0.0
 40
0.6875000000000009
100
AcDbArc
 50
270.0
 51
90.0
  0
ARC
  5
CF
330
119
100
AcDbEntity
  8
1
 62
     7
100
AcDbCircle
 10
-0.9375
 20
-3.534214991660648
 30
0.0
 40
0.6875000000000015
100
AcDbArc
 50
90.0
 51
270.0
  0
ARC
  5
D0
330
119
100
AcDbEntity
  8
1
 62
     7
100
AcDbCircle
 10
0.0
 20
0.25
 30
0.0
 40
3.374999999999979
100
AcDbArc
 50
320.8050325740166
 51
219.1949674259828
  0
ARC
  5
D1
330
119
100
AcDbEntity
  8
1
  6
DASHDOT
 62
     3
100
AcDbCircle
 10
0.0
 20
0.0
 30
0.0
 40
30.00000000000001
100
AcDbArc
 50
38.78991793223873
 51
51.21008206776122
  0
ARC
  5
D2
330
119
100
AcDbEntity
  8
1
  6
DASHDOT
 62
     3
100
AcDbCircle
 10
0.0
 20
0.0
 30
0.0
 40
30.00000000000003
100
AcDbArc
 50
128.7899179322387
 51
141.2100820677611
  0
ARC
  5
D3
330
119
100
AcDbEntity
  8
1
  6
DASHDOT
 62
     3
100
AcDbCircle
 10
0.0
 20
0.0
 30
0.0
 40
30.00000000000001
100
AcDbArc
 50
218.7899179322386
 51
231.2100820677613
  0
ARC
  5
D4
330
119
100
AcDbEntity
  8
1
  6
DASHDOT
 62
     3
100
AcDbCircle
 10
0.0
 20
0.0
 30
0.0
 40
30.0
100
AcDbArc
 50
308.7899179322386
 51
321.2100820677612
  0
ARC
  5
D5
330
119
100
AcDbEntity
  8
1
 62
     7
100
AcDbCircle
 10
0.0
 20
0.6000000000000015
 30
0.0
 40
14.0
100
AcDbArc
 50
299.4003510102126
 51
240.5996489897872
  0
CIRCLE
  5
D6
330
119
100
AcDbEntity
  8
1
 62
     7
100
AcDbCircle
 10
222.999537159785
 20
0.0
 30
0.0
 40
20.0
  0
CIRCLE
  5
D7
330
119
100
AcDbEntity
  8
1
 62
     7
100
AcDbCircle
 10
222.999537159785
 20
0.0
 30
0.0
 40
23.5
  0
CIRCLE
  5
D8
330
119
100
AcDbEntity
  8
1
 62
     7
100
AcDbCircle
 10
222.999537159785
 20
0.0
 30
0.0
 40
25.0
  0
CIRCLE
  5
D9
330
119
100
AcDbEntity
  8
1
 62
     7
100
AcDbCircle
 10
222.999537159785
 20
0.0
 30
0.0
 40
35.00000000000003
  0
CIRCLE
  5
DA
330
119
100
AcDbEntity
  8
1
 62
     7
100
AcDbCircle
 10
244.2127405953815
 20
21.21320343559641
 30
0.0
 40
2.25
  0
CIRCLE
  5
DB
330
119
100
AcDbEntity
  8
1
 62
     7
100
AcDbCircle
 10
201.7863337241887
 20
21.21320343559644
 30
0.0
 40
2.25
  0
CIRCLE
  5
DC
330
119
100
AcDbEntity
  8
1
 62
     7
100
AcDbCircle
 10
201.7863337241885
 20
-21.21320343559637
 30
0.0
 40
2.25
  0
CIRCLE
  5
DD
330
119
100
AcDbEntity
  8
1
 62
     7
100
AcDbCircle
 10
244.2127405953815
 20
-21.21320343559641
 30
0.0
 40
2.25
  0
CIRCLE
  5
DE
330
119
100
AcDbEntity
  8
1
 62
     3
100
AcDbCircle
 10
222.999537159785
 20
15.0
 30
0.0
 40
2.0
  0
CIRCLE
  5
DF
330
119
100
AcDbEntity
  8
1
 62
     3
100
AcDbCircle
 10
210.0091561030184
 20
-7.499999999999992
 30
0.0
 40
2.0
  0
CIRCLE
  5
E0
330
119
100
AcDbEntity
  8
1
 62
     3
100
AcDbCircle
 10
235.9899182165515
 20
-7.499999999999995
 30
0.0
 40
2.0
  0
CIRCLE
  5
E1
330
119
100
AcDbEntity
  8
1
 62
     7
100
AcDbCircle
 10
222.999537159785
 20
0.0
 30
0.0
 40
2.5
  0
CIRCLE
  5
E2
330
119
100
AcDbEntity
  8
1
 62
     7
100
AcDbCircle
 10
0.0
 20
0.0
 30
0.0
 40
9.499999999999996
  0
CIRCLE
  5
E3
330
119
100
AcDbEntity
  8
1
 62
     7
100
AcDbCircle
 10
0.0
 20
0.0
 30
0.0
 40
23.5
  0
CIRCLE
  5
E4
330
119
100
AcDbEntity
  8
1
 62
     7
100
AcDbCircle
 10
0.0
 20
0.0
 30
0.0
 40
25.0
  0
CIRCLE
  5
E5
330
119
100
AcDbEntity
  8
1
 62
     7
100
AcDbCircle
 10
21.21320343559643
 20
21.21320343559641
 30
0.0
 40
2.25
  0
CIRCLE
  5
E6
330
119
100
AcDbEntity
  8
1
 62
     7
100
AcDbCircle
 10
-21.21320343559637
 20
21.21320343559644
 30
0.0
 40
2.25
  0
CIRCLE
  5
E7
330
119
100
AcDbEntity
  8
1
 62
     7
100
AcDbCircle
 10
-21.21320343559641
 20
-21.21320343559637
 30
0.0
 40
2.25
  0
CIRCLE
  5
E8
330
119
100
AcDbEntity
  8
1
 62
     7
100
AcDbCircle
 10
21.21320343559643
 20
-21.21320343559641
 30
0.0
 40
2.25
  0
CIRCLE
  5
E9
330
119
100
AcDbEntity
  8
1
 62
     7
100
AcDbCircle
 10
0.0
 20
0.0
 30
0.0
 40
2.5
  0
CIRCLE
  5
EA
330
119
100
AcDbEntity
  8
1
 62
     7
100
AcDbCircle
 10
0.0
 20
0.0
 30
0.0
 40
12.5
  0
CIRCLE
  5
EB
330
119
100
AcDbEntity
  8
1
 62
     7
100
AcDbCircle
 10
222.999537159785
 20
0.0
 30
0.0
 40
9.5
  0
CIRCLE
  5
EC
330
119
100
AcDbEntity
  8
1
 62
     7
100
AcDbCircle
 10
222.999537159785
 20
15.0
 30
0.0
 40
1.621000000000007
  0
CIRCLE
  5
ED
330
119
100
AcDbEntity
  8
1
 62
     7
100
AcDbCircle
 10
210.0091561030184
 20
-7.499999999999992
 30
0.0
 40
1.62099999999998
  0
CIRCLE
  5
EE
330
119
100
AcDbEntity
  8
1
 62
     7
100
AcDbCircle
 10
235.9899182165515
 20
-7.499999999999995
 30
0.0
 40
1.620999999999924
  0
CIRCLE
  5
EF
330
119
100
AcDbEntity
  8
1
 62
     7
100
AcDbCircle
 10
2.865803357314162
 20
-15.08805755395684
 30
0.0
 40
1.0
  0
CIRCLE
  5
F0
330
119
100
AcDbEntity
  8
1
 62
     7
100
AcDbCircle
 10
-2.865803357314162
 20
-15.08805755395684
 30
0.0
 40
1.0
  0
TEXT
  5
F2
330
119
100
AcDbEntity
  8
1
 62
     7
100
AcDbText
 10
-42.00860300551249
 20
61.8736314779862
 30
0.0
 40
3.5
  1
OPC 5
 41
0.9
  7
SIMPLEX
 72
     1
 11
-34.73360300551249
 21
61.8736314779862
 31
0.0
100
AcDbText
  0
ENDSEC
  0
SECTION
  2
OBJECTS
  0
DICTIONARY
  5
105
330
0
100
AcDbDictionary
281
     1
  3
ACAD_COLOR
350
114
  3
ACAD_GROUP
350
106
  3
ACAD_LAYOUT
350
112
  3
ACAD_MATERIAL
350
113
  3
ACAD_MLINESTYLE
350
10F
  3
ACAD_PLOTSETTINGS
350
111
  3
ACAD_PLOTSTYLENAME
350
107
  0
DICTIONARY
  5
114
102
{ACAD_REACTORS
330
105
102
}
330
105
100
AcDbDictionary
281
     1
  0
DICTIONARY
  5
106
102
{ACAD_REACTORS
330
105
102
}
330
105
100
AcDbDictionary
281
     1
  0
DICTIONARY
  5
112
102
{ACAD_REACTORS
330
105
102
}
330
105
100
AcDbDictionary
281
     1
  3
Layout1
350
118
  3
Model
350
11C
  0
DICTIONARY
  5
113
102
{ACAD_REACTORS
330
105
102
}
330
105
100
AcDbDictionary
281
     1
  0
DICTIONARY
  5
10F
102
{ACAD_REACTORS
330
105
102
}
330
105
100
AcDbDictionary
281
     1
  3
Standard
350
110
  0
DICTIONARY
  5
111
102
{ACAD_REACTORS
330
105
102
}
330
105
100
AcDbDictionary
281
     1
  0
ACDBDICTIONARYWDFLT
  5
107
102
{ACAD_REACTORS
330
105
102
}
330
105
100
AcDbDictionary
281
     1
  3
Normal
350
108
100
AcDbDictionaryWithDefault
340
108
  0
LAYOUT
  5
118
102
{ACAD_REACTORS
330
112
102
}
330
112
100
AcDbPlotSettings
  1

  2
\\Ogura1\HP Color LaserJet 4600 PCL 5c
  4

  6

 40
0.0
 41
0.0
 42
0.0
 43
0.0
 44
0.0
 45
0.0
 46
0.0
 47
0.0
 48
0.0
 49
0.0
140
0.0
141
0.0
142
1.0
143
1.0
 70
   688
 72
     0
 73
     0
 74
     5
  7

 75
    16
147
1.0
 76
     0
 77
     2
 78
   300
148
0.0
149
0.0
100
AcDbLayout
  1
Layout1
 70
     1
 71
     1
 10
0.0
 20
0.0
 11
12.0
 21
9.0
 12
0.0
 22
0.0
 32
0.0
 14
1.000000000000000E+20
 24
1.000000000000000E+20
 34
1.000000000000000E+20
 15
-1.000000000000000E+20
 25
-1.000000000000000E+20
 35
-1.000000000000000E+20
146
0.0
 13
0.0
 23
0.0
 33
0.0
 16
1.0
 26
0.0
 36
0.0
 17
0.0
 27
1.0
 37
0.0
 76
     0
330
115
  0
LAYOUT
  5
11C
102
{ACAD_REACTORS
330
112
102
}
330
112
100
AcDbPlotSettings
  1

  2
\\Ogura1\HP Color LaserJet 4600 PCL 5c
  4

  6

 40
0.0
 41
0.0
 42
0.0
 43
0.0
 44
0.0
 45
0.0
 46
0.0
 47
0.0
 48
0.0
 49
0.0
140
0.0
141
0.0
142
1.0
143
1.0
 70
  1712
 72
     0
 73
     0
 74
     0
  7

 75
     0
147
1.0
 76
     0
 77
     2
 78
   300
148
0.0
149
0.0
100
AcDbLayout
  1
Model
 70
     1
 71
     0
 10
0.0
 20
0.0
 11
12.0
 21
9.0
 12
0.0
 22
0.0
 32
0.0
 14
0.0
 24
0.0
 34
0.0
 15
0.0
 25
0.0
 35
0.0
146
0.0
 13
0.0
 23
0.0
 33
0.0
 16
1.0
 26
0.0
 36
0.0
 17
0.0
 27
1.0
 37
0.0
 76
     0
330
119
  0
MLINESTYLE
  5
110
102
{ACAD_REACTORS
330
10F
102
}
330
10F
100
AcDbMlineStyle
  2
STANDARD
 70
     0
  3

 62
   256
 51
90.0
 52
90.0
 71
     2
 49
0.5
 62
   256
  6
BYLAYER
 49
-0.5
 62
   256
  6
BYLAYER
  0
ACDBPLACEHOLDER
  5
108
102
{ACAD_REACTORS
330
107
102
}
330
107
  0
ENDSEC
  0
EOF
