  0
SECTION
  2
HEADER
  9
$ACADVER
  1
AC1018
  9
$ACADMAINTVER
 70
     0
  9
$DWGCODEPAGE
  3
ANSI_932
  9
$INSBASE
 10
0.0
 20
0.0
 30
0.0
  9
$EXTMIN
 10
29.8445085723884
 20
131.7786585517728
 30
-0.0015258207003583
  9
$EXTMAX
 10
180.3439106634695
 20
165.0786252251863
 30
0.0000000349246037
  9
$LIMMIN
 10
29.8491008189576
 20
131.7796746465585
  9
$LIMMAX
 10
180.3393177161256
 20
165.077608975345
  9
$ORTHOMODE
 70
     0
  9
$REGENMODE
 70
     1
  9
$FILLMODE
 70
     1
  9
$QTEXTMODE
 70
     0
  9
$MIRRTEXT
 70
     1
  9
$LTSCALE
 40
1.0
  9
$ATTMODE
 70
     1
  9
$TEXTSIZE
 40
3.5
  9
$TRACEWID
 40
0.5
  9
$TEXTSTYLE
  7
STANDARD
  9
$CLAYER
  8
0
  9
$CELTYPE
  6
ByLayer
  9
$CECOLOR
 62
   256
  9
$CELTSCALE
 40
1.0
  9
$DISPSILH
 70
     0
  9
$DIMSCALE
 40
1.0
  9
$DIMASZ
 40
0.18
  9
$DIMEXO
 40
0.0625
  9
$DIMDLI
 40
0.38
  9
$DIMRND
 40
0.0
  9
$DIMDLE
 40
0.0
  9
$DIMEXE
 40
0.18
  9
$DIMTP
 40
0.0
  9
$DIMTM
 40
0.0
  9
$DIMTXT
 40
0.18
  9
$DIMCEN
 40
0.09
  9
$DIMTSZ
 40
0.0
  9
$DIMTOL
 70
     0
  9
$DIMLIM
 70
     0
  9
$DIMTIH
 70
     1
  9
$DIMTOH
 70
     1
  9
$DIMSE1
 70
     0
  9
$DIMSE2
 70
     0
  9
$DIMTAD
 70
     0
  9
$DIMZIN
 70
     0
  9
$DIMBLK
  1

  9
$DIMASO
 70
     1
  9
$DIMSHO
 70
     1
  9
$DIMPOST
  1

  9
$DIMAPOST
  1

  9
$DIMALT
 70
     0
  9
$DIMALTD
 70
     2
  9
$DIMALTF
 40
25.4
  9
$DIMLFAC
 40
1.0
  9
$DIMTOFL
 70
     0
  9
$DIMTVP
 40
0.0
  9
$DIMTIX
 70
     0
  9
$DIMSOXD
 70
     0
  9
$DIMSAH
 70
     0
  9
$DIMBLK1
  1

  9
$DIMBLK2
  1

  9
$DIMSTYLE
  2
STANDARD
  9
$DIMCLRD
 70
     0
  9
$DIMCLRE
 70
     0
  9
$DIMCLRT
 70
     0
  9
$DIMTFAC
 40
1.0
  9
$DIMGAP
 40
0.09
  9
$DIMJUST
 70
     0
  9
$DIMSD1
 70
     0
  9
$DIMSD2
 70
     0
  9
$DIMTOLJ
 70
     1
  9
$DIMTZIN
 70
     0
  9
$DIMALTZ
 70
     0
  9
$DIMALTTZ
 70
     0
  9
$DIMUPT
 70
     0
  9
$DIMDEC
 70
     4
  9
$DIMTDEC
 70
     4
  9
$DIMALTU
 70
     2
  9
$DIMALTTD
 70
     2
  9
$DIMTXSTY
  7
STANDARD
  9
$DIMAUNIT
 70
     0
  9
$DIMADEC
 70
     0
  9
$DIMALTRND
 40
0.0
  9
$DIMAZIN
 70
     0
  9
$DIMDSEP
 70
    46
  9
$DIMATFIT
 70
     3
  9
$DIMFRAC
 70
     0
  9
$DIMLDRBLK
  1

  9
$DIMLUNIT
 70
     2
  9
$DIMLWD
 70
    -2
  9
$DIMLWE
 70
    -2
  9
$DIMTMOVE
 70
     0
  9
$LUNITS
 70
     2
  9
$LUPREC
 70
     4
  9
$SKETCHINC
 40
0.1
  9
$FILLETRAD
 40
2.0
  9
$AUNITS
 70
     0
  9
$AUPREC
 70
     0
  9
$MENU
  1
ACAD
  9
$ELEVATION
 40
0.0
  9
$PELEVATION
 40
0.0
  9
$THICKNESS
 40
0.0
  9
$LIMCHECK
 70
     0
  9
$CHAMFERA
 40
0.0
  9
$CHAMFERB
 40
0.0
  9
$CHAMFERC
 40
0.0
  9
$CHAMFERD
 40
0.0
  9
$SKPOLY
 70
     0
  9
$TDCREATE
 40
2452095.344254977
  9
$TDUCREATE
 40
2452095.510921644
  9
$TDUPDATE
 40
2453209.453588276
  9
$TDUUPDATE
 40
2453209.620254942
  9
$TDINDWG
 40
0.0005381597
  9
$TDUSRTIMER
 40
0.0005381597
  9
$USRTIMER
 70
     1
  9
$ANGBASE
 50
0.0
  9
$ANGDIR
 70
     0
  9
$PDMODE
 70
     0
  9
$PDSIZE
 40
0.0
  9
$PLINEWID
 40
0.0
  9
$SPLFRAME
 70
     0
  9
$SPLINETYPE
 70
     6
  9
$SPLINESEGS
 70
     8
  9
$HANDSEED
  5
C2
  9
$SURFTAB1
 70
     6
  9
$SURFTAB2
 70
     6
  9
$SURFTYPE
 70
     6
  9
$SURFU
 70
     6
  9
$SURFV
 70
     6
  9
$UCSBASE
  2

  9
$UCSNAME
  2

  9
$UCSORG
 10
0.0
 20
0.0
 30
0.0
  9
$UCSXDIR
 10
1.0
 20
0.0
 30
0.0
  9
$UCSYDIR
 10
0.0
 20
1.0
 30
0.0
  9
$UCSORTHOREF
  2

  9
$UCSORTHOVIEW
 70
     0
  9
$UCSORGTOP
 10
0.0
 20
0.0
 30
0.0
  9
$UCSORGBOTTOM
 10
0.0
 20
0.0
 30
0.0
  9
$UCSORGLEFT
 10
0.0
 20
0.0
 30
0.0
  9
$UCSORGRIGHT
 10
0.0
 20
0.0
 30
0.0
  9
$UCSORGFRONT
 10
0.0
 20
0.0
 30
0.0
  9
$UCSORGBACK
 10
0.0
 20
0.0
 30
0.0
  9
$PUCSBASE
  2

  9
$PUCSNAME
  2

  9
$PUCSORG
 10
0.0
 20
0.0
 30
0.0
  9
$PUCSXDIR
 10
1.0
 20
0.0
 30
0.0
  9
$PUCSYDIR
 10
0.0
 20
1.0
 30
0.0
  9
$PUCSORTHOREF
  2

  9
$PUCSORTHOVIEW
 70
     0
  9
$PUCSORGTOP
 10
0.0
 20
0.0
 30
0.0
  9
$PUCSORGBOTTOM
 10
0.0
 20
0.0
 30
0.0
  9
$PUCSORGLEFT
 10
0.0
 20
0.0
 30
0.0
  9
$PUCSORGRIGHT
 10
0.0
 20
0.0
 30
0.0
  9
$PUCSORGFRONT
 10
0.0
 20
0.0
 30
0.0
  9
$PUCSORGBACK
 10
0.0
 20
0.0
 30
0.0
  9
$USERI1
 70
     0
  9
$USERI2
 70
     0
  9
$USERI3
 70
     0
  9
$USERI4
 70
     0
  9
$USERI5
 70
     0
  9
$USERR1
 40
0.0
  9
$USERR2
 40
0.0
  9
$USERR3
 40
0.0
  9
$USERR4
 40
0.0
  9
$USERR5
 40
0.0
  9
$WORLDVIEW
 70
     1
  9
$SHADEDGE
 70
     3
  9
$SHADEDIF
 70
    70
  9
$TILEMODE
 70
     1
  9
$MAXACTVP
 70
    64
  9
$PINSBASE
 10
0.0
 20
0.0
 30
0.0
  9
$PLIMCHECK
 70
     0
  9
$PEXTMIN
 10
1.000000000000000E+20
 20
1.000000000000000E+20
 30
1.000000000000000E+20
  9
$PEXTMAX
 10
-1.000000000000000E+20
 20
-1.000000000000000E+20
 30
-1.000000000000000E+20
  9
$PLIMMIN
 10
0.0
 20
0.0
  9
$PLIMMAX
 10
12.0
 20
9.0
  9
$UNITMODE
 70
     0
  9
$VISRETAIN
 70
     1
  9
$PLINEGEN
 70
     0
  9
$PSLTSCALE
 70
     1
  9
$TREEDEPTH
 70
  3020
  9
$CMLSTYLE
  2
Standard
  9
$CMLJUST
 70
     0
  9
$CMLSCALE
 40
1.0
  9
$PROXYGRAPHICS
 70
     1
  9
$MEASUREMENT
 70
     0
  9
$CELWEIGHT
370
    -1
  9
$ENDCAPS
280
     0
  9
$JOINSTYLE
280
     0
  9
$LWDISPLAY
290
     0
  9
$INSUNITS
 70
     0
  9
$HYPERLINKBASE
  1

  9
$STYLESHEET
  1

  9
$XEDIT
290
     1
  9
$CEPSNTYPE
380
     0
  9
$PSTYLEMODE
290
     1
  9
$FINGERPRINTGUID
  2
{F68665C0-E61C-458E-AC65-15DC6E6B2D55}
  9
$VERSIONGUID
  2
{96F385F6-FB4C-4CF5-B568-1229BD81AC66}
  9
$EXTNAMES
290
     1
  9
$PSVPSCALE
 40
0.0
  9
$OLESTARTUP
290
     0
  9
$SORTENTS
280
   127
  9
$INDEXCTL
280
     0
  9
$HIDETEXT
280
     0
  9
$XCLIPFRAME
290
     0
  9
$HALOGAP
280
     0
  9
$OBSCOLOR
 70
   257
  9
$OBSLTYPE
280
     0
  9
$INTERSECTIONDISPLAY
280
     0
  9
$INTERSECTIONCOLOR
 70
   257
  9
$DIMASSOC
280
     1
  9
$PROJECTNAME
  1

  0
ENDSEC
  0
SECTION
  2
CLASSES
  0
CLASS
  1
ACDBDICTIONARYWDFLT
  2
AcDbDictionaryWithDefault
  3
ObjectDBX Classes
 90
        0
 91
        1
280
     0
281
     0
  0
ENDSEC
  0
SECTION
  2
TABLES
  0
TABLE
  2
VPORT
  5
8F
330
0
100
AcDbSymbolTable
 70
     2
  0
VPORT
  5
C1
330
8F
100
AcDbSymbolTableRecord
100
AcDbViewportTableRecord
  2
*Active
 70
     0
 10
0.0
 20
0.0
 11
1.0
 21
1.0
 12
105.0942096179289
 22
148.4286418884795
 13
0.0
 23
0.0
 14
1.0
 24
1.0
 15
0.0
 25
0.0
 16
0.0
 26
0.0
 36
1.0
 17
0.0
 27
0.0
 37
0.0
 40
93.12924695486179
 41
1.625
 42
50.0
 43
0.0
 44
0.0
 50
0.0
 51
0.0
 71
     0
 72
   100
 73
     1
 74
     1
 75
     0
 76
     0
 77
     0
 78
     0
281
     0
 65
     1
110
0.0
120
0.0
130
0.0
111
1.0
121
0.0
131
0.0
112
0.0
122
1.0
132
0.0
 79
     0
146
0.0
  0
ENDTAB
  0
TABLE
  2
LTYPE
  5
8C
330
0
100
AcDbSymbolTable
 70
     9
  0
LTYPE
  5
9A
330
8C
100
AcDbSymbolTableRecord
100
AcDbLinetypeTableRecord
  2
ByBlock
 70
     0
  3

 72
    65
 73
     0
 40
0.0
  0
LTYPE
  5
9B
330
8C
100
AcDbSymbolTableRecord
100
AcDbLinetypeTableRecord
  2
ByLayer
 70
     0
  3

 72
    65
 73
     0
 40
0.0
  0
LTYPE
  5
9C
330
8C
100
AcDbSymbolTableRecord
100
AcDbLinetypeTableRecord
  2
CONTINUOUS
 70
     0
  3
Solid line
 72
    65
 73
     0
 40
0.0
  0
LTYPE
  5
AC
330
8C
100
AcDbSymbolTableRecord
100
AcDbLinetypeTableRecord
  2
BORDER
 70
     0
  3
__ __ . __ __ .
 72
    65
 73
     6
 40
6.930470515001157
 49
1.980134432857473
 74
     0
 49
-0.9900672164287371
 74
     0
 49
1.980134432857473
 74
     0
 49
-0.9900672164287371
 74
     0
 49
0.0
 74
     0
 49
-0.9900672164287371
 74
     0
  0
LTYPE
  5
AD
330
8C
100
AcDbSymbolTableRecord
100
AcDbLinetypeTableRecord
  2
CENTER
 70
     0
  3
____ _ ____ _
 72
    65
 73
     4
 40
7.920537731429894
 49
4.950336082143683
 74
     0
 49
-0.9900672164287371
 74
     0
 49
0.9900672164287371
 74
     0
 49
-0.9900672164287371
 74
     0
  0
LTYPE
  5
AE
330
8C
100
AcDbSymbolTableRecord
100
AcDbLinetypeTableRecord
  2
DASHDOT
 70
     0
  3
__ . __ . __ .
 72
    65
 73
     4
 40
3.960268865714947
 49
1.980134432857473
 74
     0
 49
-0.9900672164287371
 74
     0
 49
0.0
 74
     0
 49
-0.9900672164287371
 74
     0
  0
LTYPE
  5
AF
330
8C
100
AcDbSymbolTableRecord
100
AcDbLinetypeTableRecord
  2
DASHED
 70
     0
  3
__ __ __ __ __
 72
    65
 73
     2
 40
2.97020164928621
 49
1.980134432857473
 74
     0
 49
-0.9900672164287371
 74
     0
  0
LTYPE
  5
B0
330
8C
100
AcDbSymbolTableRecord
100
AcDbLinetypeTableRecord
  2
DIVIDE
 70
     0
  3
__ . . __ . . 
 72
    65
 73
     6
 40
4.950336082143683
 49
1.980134432857473
 74
     0
 49
-0.9900672164287371
 74
     0
 49
0.0
 74
     0
 49
-0.9900672164287371
 74
     0
 49
0.0
 74
     0
 49
-0.9900672164287371
 74
     0
  0
LTYPE
  5
B1
330
8C
100
AcDbSymbolTableRecord
100
AcDbLinetypeTableRecord
  2
DOT
 70
     0
  3
..............
 72
    65
 73
     4
 40
1.980134432857473
 49
0.0
 74
     0
 49
-0.9900672164287371
 74
     0
 49
0.0
 74
     0
 49
-0.9900672164287371
 74
     0
  0
LTYPE
  5
B2
330
8C
100
AcDbSymbolTableRecord
100
AcDbLinetypeTableRecord
  2
HIDDEN
 70
     0
  3
_ _ _ _ _ _ _
 72
    65
 73
     2
 40
1.485100824643103
 49
0.9900672164287371
 74
     0
 49
-0.4950336082143685
 74
     0
  0
LTYPE
  5
B3
330
8C
100
AcDbSymbolTableRecord
100
AcDbLinetypeTableRecord
  2
PHANTOM
 70
     0
  3
_____ _ _ _____ _ _ 
 72
    65
 73
     6
 40
9.900672164287367
 49
4.950336082143683
 74
     0
 49
-0.9900672164287371
 74
     0
 49
0.9900672164287371
 74
     0
 49
-0.9900672164287371
 74
     0
 49
0.9900672164287371
 74
     0
 49
-0.9900672164287371
 74
     0
  0
ENDTAB
  0
TABLE
  2
LAYER
  5
89
330
0
100
AcDbSymbolTable
 70
     2
  0
LAYER
  5
97
330
89
100
AcDbSymbolTableRecord
100
AcDbLayerTableRecord
  2
0
 70
     0
 62
     7
  6
CONTINUOUS
370
    -3
390
96
  0
LAYER
  5
B4
330
89
100
AcDbSymbolTableRecord
100
AcDbLayerTableRecord
  2
1
 70
     0
 62
     7
  6
CONTINUOUS
370
    -3
390
96
  0
ENDTAB
  0
TABLE
  2
STYLE
  5
8A
330
0
100
AcDbSymbolTable
 70
     4
  0
STYLE
  5
98
330
8A
100
AcDbSymbolTableRecord
100
AcDbTextStyleTableRecord
  2
STANDARD
 70
     0
 40
0.0
 41
1.0
 50
0.0
 71
     0
 42
3.5
  3
txt
  4

  0
STYLE
  5
B5
330
8A
100
AcDbSymbolTableRecord
100
AcDbTextStyleTableRecord
  2
SIMPLEX
 70
     0
 40
0.0
 41
1.0
 50
0.0
 71
     0
 42
3.5
  3
simplex
  4

  0
STYLE
  5
B6
330
8A
100
AcDbSymbolTableRecord
100
AcDbTextStyleTableRecord
  2
COMPLEX
 70
     0
 40
0.0
 41
1.0
 50
0.0
 71
     0
 42
3.5
  3
complex
  4

  0
STYLE
  5
B7
330
8A
100
AcDbSymbolTableRecord
100
AcDbTextStyleTableRecord
  2
ITALIC
 70
     0
 40
0.0
 41
1.0
 50
0.0
 71
     0
 42
3.5
  3
italic
  4

  0
ENDTAB
  0
TABLE
  2
VIEW
  5
8D
330
0
100
AcDbSymbolTable
 70
     0
  0
ENDTAB
  0
TABLE
  2
UCS
  5
8E
330
0
100
AcDbSymbolTable
 70
     0
  0
ENDTAB
  0
TABLE
  2
APPID
  5
90
330
0
100
AcDbSymbolTable
 70
     1
  0
APPID
  5
99
330
90
100
AcDbSymbolTableRecord
100
AcDbRegAppTableRecord
  2
ACAD
 70
     0
  0
ENDTAB
  0
TABLE
  2
DIMSTYLE
  5
91
330
0
100
AcDbSymbolTable
 70
     1
100
AcDbDimStyleTable
 71
     0
  0
DIMSTYLE
105
B8
330
91
100
AcDbSymbolTableRecord
100
AcDbDimStyleTableRecord
  2
STANDARD
 70
     0
279
     2
340
98
  0
ENDTAB
  0
TABLE
  2
BLOCK_RECORD
  5
88
330
0
100
AcDbSymbolTable
 70
     2
  0
BLOCK_RECORD
  5
A7
330
88
100
AcDbSymbolTableRecord
100
AcDbBlockTableRecord
  2
*Model_Space
340
AA
  0
BLOCK_RECORD
  5
A3
330
88
100
AcDbSymbolTableRecord
100
AcDbBlockTableRecord
  2
*Paper_Space
340
A6
  0
BLOCK_RECORD
  5
BD
330
88
100
AcDbSymbolTableRecord
100
AcDbBlockTableRecord
  2
$MODEL_SPACE
340
0
  0
BLOCK_RECORD
  5
BF
330
88
100
AcDbSymbolTableRecord
100
AcDbBlockTableRecord
  2
$PAPER_SPACE
340
0
  0
ENDTAB
  0
ENDSEC
  0
SECTION
  2
BLOCKS
  0
BLOCK
  5
A8
330
A7
100
AcDbEntity
  8
0
100
AcDbBlockBegin
  2
*Model_Space
 70
     0
 10
0.0
 20
0.0
 30
0.0
  3
*Model_Space
  1

  0
ENDBLK
  5
A9
330
A7
100
AcDbEntity
  8
0
100
AcDbBlockEnd
  0
BLOCK
  5
A4
330
A3
100
AcDbEntity
 67
     1
  8
0
100
AcDbBlockBegin
  2
*Paper_Space
 70
     0
 10
0.0
 20
0.0
 30
0.0
  3
*Paper_Space
  1

  0
ENDBLK
  5
A5
330
A3
100
AcDbEntity
 67
     1
  8
0
100
AcDbBlockEnd
  0
BLOCK
  5
BE
330
BD
100
AcDbEntity
  8
0
100
AcDbBlockBegin
  2
$MODEL_SPACE
 70
     0
 10
0.0
 20
0.0
 30
0.0
  3
$MODEL_SPACE
  1

  0
ENDBLK
  5
20
330
BD
100
AcDbEntity
  8
0
100
AcDbBlockEnd
  0
BLOCK
  5
C0
330
BF
100
AcDbEntity
  8
0
100
AcDbBlockBegin
  2
$PAPER_SPACE
 70
     0
 10
0.0
 20
0.0
 30
0.0
  3
$PAPER_SPACE
  1

  0
ENDBLK
  5
1C
330
BF
100
AcDbEntity
  8
0
100
AcDbBlockEnd
  0
ENDSEC
  0
SECTION
  2
ENTITIES
  0
LINE
  5
33
330
A7
100
AcDbEntity
  8
1
  6
DASHDOT
 62
     3
100
AcDbLine
 10
170.3393177161256
 20
144.2796746465585
 30
0.0
 11
170.3393177161256
 21
139.2796746465585
 31
0.0
  0
LINE
  5
34
330
A7
100
AcDbEntity
  8
1
  6
DASHDOT
 62
     3
100
AcDbLine
 10
172.8393177161256
 20
141.7796746465585
 30
0.0
 11
167.8393177161256
 21
141.7796746465585
 31
0.0
  0
LINE
  5
35
330
A7
100
AcDbEntity
  8
1
  6
DASHDOT
 62
     3
100
AcDbLine
 10
39.8491008189576
 20
144.2796746465585
 30
0.0
 11
39.8491008189576
 21
139.2796746465585
 31
0.0
  0
LINE
  5
36
330
A7
100
AcDbEntity
  8
1
  6
DASHDOT
 62
     3
100
AcDbLine
 10
42.3491008189576
 20
141.7796746465585
 30
0.0
 11
37.3491008189576
 21
141.7796746465585
 31
0.0
  0
LINE
  5
37
330
A7
100
AcDbEntity
  8
1
  6
DASHED
 62
     3
100
AcDbLine
 10
122.7393177161259
 20
137.7796746465586
 30
0.0
 11
90.7393177161256
 21
137.7796746465586
 31
0.0
  0
LINE
  5
38
330
A7
100
AcDbEntity
  8
1
  6
DASHED
 62
     3
100
AcDbLine
 10
90.7393177161256
 20
145.7796746465585
 30
0.0
 11
122.7393177161259
 21
145.7796746465585
 31
0.0
  0
LINE
  5
39
330
A7
100
AcDbEntity
  8
1
 62
     7
100
AcDbLine
 10
117.7393177161256
 20
151.7796746465585
 30
0.0
 11
90.7393177161256
 21
151.7796746465585
 31
0.0
  0
LINE
  5
3A
330
A7
100
AcDbEntity
  8
1
 62
     7
100
AcDbLine
 10
90.7393177161256
 20
150.2796746465586
 30
0.0
 11
88.2393177161256
 21
150.2796746465586
 31
0.0
  0
LINE
  5
3B
330
A7
100
AcDbEntity
  8
1
 62
     7
100
AcDbLine
 10
88.2393177161256
 20
150.2796746465586
 30
0.0
 11
88.2393177161256
 21
147.2796746465586
 31
0.0
  0
LINE
  5
3C
330
A7
100
AcDbEntity
  8
1
 62
     7
100
AcDbLine
 10
88.2393177161256
 20
147.2796746465586
 30
0.0
 11
90.7393177161256
 21
147.2796746465586
 31
0.0
  0
LINE
  5
3D
330
A7
100
AcDbEntity
  8
1
 62
     7
100
AcDbLine
 10
90.7393177161256
 20
151.7796746465585
 30
0.0
 11
90.7393177161256
 21
131.7796746465585
 31
0.0
  0
LINE
  5
3E
330
A7
100
AcDbEntity
  8
1
 62
     7
100
AcDbLine
 10
117.7393177161256
 20
151.7796746465585
 30
0.0
 11
117.7393177161256
 21
131.7796746465585
 31
0.0
  0
LINE
  5
3F
330
A7
100
AcDbEntity
  8
1
 62
     7
100
AcDbLine
 10
93.1393177161256
 20
142.6796746465585
 30
0.0
 11
91.7393177161256
 21
142.6796746465585
 31
0.0
  0
LINE
  5
40
330
A7
100
AcDbEntity
  8
1
 62
     7
100
AcDbLine
 10
93.1393177161256
 20
142.6796746465585
 30
0.0
 11
93.1393177161256
 21
140.8796746465585
 31
0.0
  0
LINE
  5
41
330
A7
100
AcDbEntity
  8
1
 62
     7
100
AcDbLine
 10
91.7393177161256
 20
151.7796746465585
 30
0.0
 11
91.7393177161256
 21
142.6796746465585
 31
0.0
  0
LINE
  5
42
330
A7
100
AcDbEntity
  8
1
 62
     7
100
AcDbLine
 10
115.3393177161256
 20
142.6796746465585
 30
0.0
 11
115.3393177161256
 21
140.8796746465585
 31
0.0
  0
LINE
  5
43
330
A7
100
AcDbEntity
  8
1
 62
     7
100
AcDbLine
 10
116.7393177161256
 20
142.6796746465585
 30
0.0
 11
115.3393177161256
 21
142.6796746465585
 31
0.0
  0
LINE
  5
44
330
A7
100
AcDbEntity
  8
1
 62
     7
100
AcDbLine
 10
116.7393177161256
 20
142.6796746465585
 30
0.0
 11
116.7393177161256
 21
151.7796746465585
 31
0.0
  0
LINE
  5
45
330
A7
100
AcDbEntity
  8
1
 62
     7
100
AcDbLine
 10
119.7893177161258
 20
142.8296746465586
 30
0.0
 11
122.7393177161259
 21
142.8296746465586
 31
0.0
  0
LINE
  5
46
330
A7
100
AcDbEntity
  8
1
 62
     7
100
AcDbLine
 10
122.7393177161259
 20
147.2796746465586
 30
0.0
 11
122.7393177161259
 21
142.8296746465586
 31
0.0
  0
LINE
  5
47
330
A7
100
AcDbEntity
  8
1
 62
     7
100
AcDbLine
 10
122.7393177161259
 20
147.2796746465586
 30
0.0
 11
117.7393177161256
 21
147.2796746465586
 31
0.0
  0
LINE
  5
48
330
A7
100
AcDbEntity
  8
1
 62
     7
100
AcDbLine
 10
35.94203761788921
 20
147.8240817426149
 30
0.0
 11
35.3446948126805
 21
148.7481986316371
 31
0.0
  0
LINE
  5
49
330
A7
100
AcDbEntity
  8
1
 62
     7
100
AcDbLine
 10
44.35350682523469
 20
148.7481986316371
 30
0.0
 11
43.756164020026
 21
147.8240817426149
 31
0.0
  0
LINE
  5
4A
330
A7
100
AcDbEntity
  8
1
 62
     7
100
AcDbLine
 10
35.3446948126805
 20
134.8111506614801
 30
0.0
 11
35.94203761788921
 21
135.7352675505022
 31
0.0
  0
LINE
  5
4B
330
A7
100
AcDbEntity
  8
1
 62
     7
100
AcDbLine
 10
43.756164020026
 20
135.7352675505022
 30
0.0
 11
44.35350682523469
 21
134.8111506614801
 31
0.0
  0
LINE
  5
4C
330
A7
100
AcDbEntity
  8
1
 62
     7
100
AcDbLine
 10
90.7393177161256
 20
131.7796746465585
 30
0.0
 11
117.7393177161256
 21
131.7796746465585
 31
0.0
  0
LINE
  5
4D
330
A7
100
AcDbEntity
  8
1
 62
     7
100
AcDbLine
 10
88.2393177161256
 20
133.2796746465585
 30
0.0
 11
90.7393177161256
 21
133.2796746465585
 31
0.0
  0
LINE
  5
4E
330
A7
100
AcDbEntity
  8
1
 62
     7
100
AcDbLine
 10
88.2393177161256
 20
136.2796746465585
 30
0.0
 11
88.2393177161256
 21
133.2796746465585
 31
0.0
  0
LINE
  5
4F
330
A7
100
AcDbEntity
  8
1
 62
     7
100
AcDbLine
 10
90.7393177161256
 20
136.2796746465585
 30
0.0
 11
88.2393177161256
 21
136.2796746465585
 31
0.0
  0
LINE
  5
50
330
A7
100
AcDbEntity
  8
1
 62
     7
100
AcDbLine
 10
91.7393177161256
 20
140.8796746465585
 30
0.0
 11
93.1393177161256
 21
140.8796746465585
 31
0.0
  0
LINE
  5
51
330
A7
100
AcDbEntity
  8
1
 62
     7
100
AcDbLine
 10
91.7393177161256
 20
140.8796746465585
 30
0.0
 11
91.7393177161256
 21
131.7796746465585
 31
0.0
  0
LINE
  5
52
330
A7
100
AcDbEntity
  8
1
 62
     7
100
AcDbLine
 10
115.3393177161256
 20
140.8796746465585
 30
0.0
 11
116.7393177161256
 21
140.8796746465585
 31
0.0
  0
LINE
  5
53
330
A7
100
AcDbEntity
  8
1
 62
     7
100
AcDbLine
 10
116.7393177161256
 20
131.7796746465585
 30
0.0
 11
116.7393177161256
 21
140.8796746465585
 31
0.0
  0
LINE
  5
54
330
A7
100
AcDbEntity
  8
1
 62
     7
100
AcDbLine
 10
38.64910081895755
 20
136.4121798864305
 30
0.0
 11
38.64910081895755
 21
133.3648068519939
 31
0.0
  0
LINE
  5
55
330
A7
100
AcDbEntity
  8
1
 62
     7
100
AcDbLine
 10
41.04910081895764
 20
136.4121798864305
 30
0.0
 11
41.04910081895764
 21
133.3648068519939
 31
0.0
  0
LINE
  5
56
330
A7
100
AcDbEntity
  8
1
 62
     7
100
AcDbLine
 10
38.64910081895755
 20
150.1945424411232
 30
0.0
 11
38.64910081895755
 21
147.1471694066863
 31
0.0
  0
LINE
  5
57
330
A7
100
AcDbEntity
  8
1
 62
     7
100
AcDbLine
 10
41.04910081895764
 20
150.1945424411232
 30
0.0
 11
41.04910081895764
 21
147.1471694066863
 31
0.0
  0
LINE
  5
58
330
A7
100
AcDbEntity
  8
1
 62
     7
100
AcDbLine
 10
164.9404752475959
 20
140.7296746465585
 30
0.0
 11
166.4795897464364
 21
140.7296746465585
 31
0.0
  0
LINE
  5
59
330
A7
100
AcDbEntity
  8
1
 62
     7
100
AcDbLine
 10
164.9404752475959
 20
142.8296746465585
 30
0.0
 11
166.4795897464364
 21
142.8296746465585
 31
0.0
  0
LINE
  5
5A
330
A7
100
AcDbEntity
  8
1
 62
     7
100
AcDbLine
 10
174.1990456858147
 20
140.7296746465585
 30
0.0
 11
175.7381601846554
 21
140.7296746465585
 31
0.0
  0
LINE
  5
5B
330
A7
100
AcDbEntity
  8
1
 62
     7
100
AcDbLine
 10
174.1990456858147
 20
142.8296746465585
 30
0.0
 11
175.7381601846554
 21
142.8296746465585
 31
0.0
  0
LINE
  5
5C
330
A7
100
AcDbEntity
  8
1
 62
     7
100
AcDbLine
 10
122.7393177161259
 20
140.7296746465585
 30
0.0
 11
119.7893177161258
 21
140.7296746465585
 31
0.0
  0
LINE
  5
5D
330
A7
100
AcDbEntity
  8
1
 62
     7
100
AcDbLine
 10
122.7393177161259
 20
140.7296746465585
 30
0.0
 11
122.7393177161259
 21
136.2796746465585
 31
0.0
  0
LINE
  5
5E
330
A7
100
AcDbEntity
  8
1
 62
     7
100
AcDbLine
 10
117.7393177161256
 20
136.2796746465585
 30
0.0
 11
122.7393177161259
 21
136.2796746465585
 31
0.0
  0
LINE
  5
5F
330
A7
100
AcDbEntity
  8
1
  6
DASHDOT
 62
     3
100
AcDbLine
 10
122.7393177161259
 20
141.7796746465585
 30
0.0
 11
125.7393177161259
 21
141.7796746465585
 31
0.0
  0
LINE
  5
60
330
A7
100
AcDbEntity
  8
1
  6
DASHDOT
 62
     3
100
AcDbLine
 10
87.73931771612557
 20
141.7796746465585
 30
0.0
 11
90.7393177161256
 21
141.7796746465585
 31
0.0
  0
LINE
  5
61
330
A7
100
AcDbEntity
  8
1
 62
     7
100
AcDbLine
 10
90.7393177161256
 20
133.3648068519939
 30
0.0
 11
88.2393177161256
 21
133.3648068519939
 31
0.0
  0
LINE
  5
62
330
A7
100
AcDbEntity
  8
1
 62
     7
100
AcDbLine
 10
88.2393177161256
 20
150.1945424411232
 30
0.0
 11
90.7393177161256
 21
150.1945424411232
 31
0.0
  0
ARC
  5
63
330
A7
100
AcDbEntity
  8
1
 62
     7
100
AcDbCircle
 10
39.8491008189576
 20
141.7796746465585
 30
0.0
 40
6.249999999999992
100
AcDbArc
 50
101.0695249733737
 51
258.9304750266263
  0
ARC
  5
64
330
A7
100
AcDbEntity
  8
1
 62
     7
100
AcDbCircle
 10
39.8491008189576
 20
141.7796746465585
 30
0.0
 40
6.25
100
AcDbArc
 50
0.0
 51
78.93047502662645
  0
ARC
  5
65
330
A7
100
AcDbEntity
  8
1
 62
     7
100
AcDbCircle
 10
39.8491008189576
 20
141.7796746465585
 30
0.0
 40
6.249999999999961
100
AcDbArc
 50
281.0695249733736
 51
0.0
  0
ARC
  5
66
330
A7
100
AcDbEntity
  8
1
 62
     7
100
AcDbCircle
 10
39.8491008189576
 20
141.7796746465585
 30
0.0
 40
7.000000000000033
100
AcDbArc
 50
58.71340461220807
 51
80.12911039386031
  0
ARC
  5
67
330
A7
100
AcDbEntity
  8
1
 62
     7
100
AcDbCircle
 10
39.8491008189576
 20
141.7796746465585
 30
0.0
 40
7.000000000000036
100
AcDbArc
 50
238.713404612208
 51
260.1291103938601
  0
ARC
  5
68
330
A7
100
AcDbEntity
  8
1
 62
     7
100
AcDbCircle
 10
39.8491008189576
 20
141.7796746465585
 30
0.0
 40
7.000000000000058
100
AcDbArc
 50
99.87088960613993
 51
121.2865953877922
  0
ARC
  5
69
330
A7
100
AcDbEntity
  8
1
 62
     7
100
AcDbCircle
 10
39.8491008189576
 20
141.7796746465585
 30
0.0
 40
8.50000000000004
100
AcDbArc
 50
304.2591043987309
 51
55.74089560126907
  0
ARC
  5
6A
330
A7
100
AcDbEntity
  8
1
 62
     7
100
AcDbCircle
 10
39.8491008189576
 20
141.7796746465585
 30
0.0
 40
7.000000000000028
100
AcDbArc
 50
279.8708896061399
 51
301.2865953877919
  0
ARC
  5
6B
330
A7
100
AcDbEntity
  8
1
 62
     7
100
AcDbCircle
 10
39.8491008189576
 20
141.7796746465585
 30
0.0
 40
8.500000000000021
100
AcDbArc
 50
124.2591043987306
 51
235.7408956012692
  0
ARC
  5
6C
330
A7
100
AcDbEntity
  8
1
 62
     7
100
AcDbCircle
 10
39.8491008189576
 20
141.7796746465585
 30
0.0
 40
5.50000000000005
100
AcDbArc
 50
257.3977351585345
 51
282.6022648414653
  0
ARC
  5
6D
330
A7
100
AcDbEntity
  8
1
 62
     7
100
AcDbCircle
 10
39.8491008189576
 20
141.7796746465585
 30
0.0
 40
8.500000000000035
100
AcDbArc
 50
261.8840707591985
 51
278.1159292408016
  0
ARC
  5
6E
330
A7
100
AcDbEntity
  8
1
 62
     7
100
AcDbCircle
 10
39.8491008189576
 20
141.7796746465585
 30
0.0
 40
5.499999999999964
100
AcDbArc
 50
77.39773515853444
 51
102.6022648414657
  0
ARC
  5
6F
330
A7
100
AcDbEntity
  8
1
 62
     7
100
AcDbCircle
 10
39.8491008189576
 20
141.7796746465585
 30
0.0
 40
8.500000000000035
100
AcDbArc
 50
81.88407075919842
 51
98.11592924080166
  0
ARC
  5
70
330
A7
100
AcDbEntity
  8
1
 62
     7
100
AcDbCircle
 10
119.7893177161258
 20
141.7796746465585
 30
0.0
 40
1.050000000000097
100
AcDbArc
 50
90.0
 51
270.0
  0
ARC
  5
71
330
A7
100
AcDbEntity
  8
1
 62
     7
100
AcDbCircle
 10
36.11000262882293
 20
147.9326531711864
 30
0.0
 40
0.1999999999999778
100
AcDbArc
 50
212.87834956437
 51
301.2865953877724
  0
ARC
  5
72
330
A7
100
AcDbEntity
  8
1
 62
     7
100
AcDbCircle
 10
35.17672980174681
 20
148.6396272030656
 30
0.0
 40
0.1999999999999932
100
AcDbArc
 50
32.87834956437694
 51
124.2591043987349
  0
ARC
  5
73
330
A7
100
AcDbEntity
  8
1
 62
     7
100
AcDbCircle
 10
43.58819900909231
 20
147.9326531711864
 30
0.0
 40
0.1999999999999311
100
AcDbArc
 50
238.7134046122119
 51
327.1216504356311
  0
ARC
  5
74
330
A7
100
AcDbEntity
  8
1
 62
     7
100
AcDbCircle
 10
44.5214718361684
 20
148.6396272030656
 30
0.0
 40
0.2000000000000665
100
AcDbArc
 50
55.74089560125499
 51
147.1216504356208
  0
ARC
  5
75
330
A7
100
AcDbEntity
  8
1
 62
     7
100
AcDbCircle
 10
36.11000262882293
 20
135.6266961219307
 30
0.0
 40
0.1999999999999163
100
AcDbArc
 50
58.71340461221885
 51
147.1216504356299
  0
ARC
  5
76
330
A7
100
AcDbEntity
  8
1
 62
     7
100
AcDbCircle
 10
35.17672980174681
 20
134.9197220900514
 30
0.0
 40
0.2000000000000465
100
AcDbArc
 50
235.7408956012633
 51
327.1216504356572
  0
ARC
  5
77
330
A7
100
AcDbEntity
  8
1
 62
     7
100
AcDbCircle
 10
43.58819900909231
 20
135.6266961219307
 30
0.0
 40
0.1999999999999837
100
AcDbArc
 50
32.87834956436898
 51
121.2865953877898
  0
ARC
  5
78
330
A7
100
AcDbEntity
  8
1
 62
     7
100
AcDbCircle
 10
44.5214718361684
 20
134.9197220900514
 30
0.0
 40
0.1999999999999041
100
AcDbArc
 50
212.878349564345
 51
304.2591043987451
  0
CIRCLE
  5
79
330
A7
100
AcDbEntity
  8
1
 62
     7
100
AcDbCircle
 10
170.3393177161256
 20
141.7796746465585
 30
0.0
 40
5.5
  0
CIRCLE
  5
7A
330
A7
100
AcDbEntity
  8
1
 62
     7
100
AcDbCircle
 10
39.8491008189576
 20
141.7796746465585
 30
0.0
 40
5.0
  0
CIRCLE
  5
7B
330
A7
100
AcDbEntity
  8
1
 62
     7
100
AcDbCircle
 10
39.8491008189576
 20
141.7796746465585
 30
0.0
 40
4.0
  0
CIRCLE
  5
7C
330
A7
100
AcDbEntity
  8
1
 62
     7
100
AcDbCircle
 10
170.3393177161256
 20
141.7796746465585
 30
0.0
 40
4.0
  0
CIRCLE
  5
7D
330
A7
100
AcDbEntity
  8
1
 62
     7
100
AcDbCircle
 10
39.8491008189576
 20
141.7796746465585
 30
0.0
 40
10.0
  0
CIRCLE
  5
7E
330
A7
100
AcDbEntity
  8
1
 62
     7
100
AcDbCircle
 10
170.3393177161256
 20
141.7796746465585
 30
0.0
 40
10.0
  0
TEXT
  5
7F
330
A7
100
AcDbEntity
  8
1
 62
     7
100
AcDbText
 10
30.56607000281424
 20
163.077608975345
 30
0.0
 40
2.0
  1
OPL 1.2R
 41
0.9
  7
SIMPLEX
 72
     1
 11
36.52321285995709
 21
163.077608975345
 31
0.0
100
AcDbText
  0
ENDSEC
  0
SECTION
  2
OBJECTS
  0
DICTIONARY
  5
93
330
0
100
AcDbDictionary
281
     1
  3
ACAD_COLOR
350
A2
  3
ACAD_GROUP
350
94
  3
ACAD_LAYOUT
350
A0
  3
ACAD_MATERIAL
350
A1
  3
ACAD_MLINESTYLE
350
9D
  3
ACAD_PLOTSETTINGS
350
9F
  3
ACAD_PLOTSTYLENAME
350
95
  0
DICTIONARY
  5
A2
102
{ACAD_REACTORS
330
93
102
}
330
93
100
AcDbDictionary
281
     1
  0
DICTIONARY
  5
94
102
{ACAD_REACTORS
330
93
102
}
330
93
100
AcDbDictionary
281
     1
  0
DICTIONARY
  5
A0
102
{ACAD_REACTORS
330
93
102
}
330
93
100
AcDbDictionary
281
     1
  3
Layout1
350
A6
  3
Model
350
AA
  0
DICTIONARY
  5
A1
102
{ACAD_REACTORS
330
93
102
}
330
93
100
AcDbDictionary
281
     1
  0
DICTIONARY
  5
9D
102
{ACAD_REACTORS
330
93
102
}
330
93
100
AcDbDictionary
281
     1
  3
Standard
350
9E
  0
DICTIONARY
  5
9F
102
{ACAD_REACTORS
330
93
102
}
330
93
100
AcDbDictionary
281
     1
  0
ACDBDICTIONARYWDFLT
  5
95
102
{ACAD_REACTORS
330
93
102
}
330
93
100
AcDbDictionary
281
     1
  3
Normal
350
96
100
AcDbDictionaryWithDefault
340
96
  0
LAYOUT
  5
A6
102
{ACAD_REACTORS
330
A0
102
}
330
A0
100
AcDbPlotSettings
  1

  2
\\Ogura1\HP Color LaserJet 4600 PCL 5c
  4

  6

 40
0.0
 41
0.0
 42
0.0
 43
0.0
 44
0.0
 45
0.0
 46
0.0
 47
0.0
 48
0.0
 49
0.0
140
0.0
141
0.0
142
1.0
143
1.0
 70
   688
 72
     0
 73
     0
 74
     5
  7

 75
    16
147
1.0
 76
     0
 77
     2
 78
   300
148
0.0
149
0.0
100
AcDbLayout
  1
Layout1
 70
     1
 71
     1
 10
0.0
 20
0.0
 11
12.0
 21
9.0
 12
0.0
 22
0.0
 32
0.0
 14
1.000000000000000E+20
 24
1.000000000000000E+20
 34
1.000000000000000E+20
 15
-1.000000000000000E+20
 25
-1.000000000000000E+20
 35
-1.000000000000000E+20
146
0.0
 13
0.0
 23
0.0
 33
0.0
 16
1.0
 26
0.0
 36
0.0
 17
0.0
 27
1.0
 37
0.0
 76
     0
330
A3
  0
LAYOUT
  5
AA
102
{ACAD_REACTORS
330
A0
102
}
330
A0
100
AcDbPlotSettings
  1

  2
\\Ogura1\HP Color LaserJet 4600 PCL 5c
  4

  6

 40
0.0
 41
0.0
 42
0.0
 43
0.0
 44
0.0
 45
0.0
 46
0.0
 47
0.0
 48
0.0
 49
0.0
140
0.0
141
0.0
142
1.0
143
1.0
 70
  1712
 72
     0
 73
     0
 74
     0
  7

 75
     0
147
1.0
 76
     0
 77
     2
 78
   300
148
0.0
149
0.0
100
AcDbLayout
  1
Model
 70
     1
 71
     0
 10
0.0
 20
0.0
 11
12.0
 21
9.0
 12
0.0
 22
0.0
 32
0.0
 14
0.0
 24
0.0
 34
0.0
 15
0.0
 25
0.0
 35
0.0
146
0.0
 13
0.0
 23
0.0
 33
0.0
 16
1.0
 26
0.0
 36
0.0
 17
0.0
 27
1.0
 37
0.0
 76
     0
330
A7
  0
MLINESTYLE
  5
9E
102
{ACAD_REACTORS
330
9D
102
}
330
9D
100
AcDbMlineStyle
  2
STANDARD
 70
     0
  3

 62
   256
 51
90.0
 52
90.0
 71
     2
 49
0.5
 62
   256
  6
BYLAYER
 49
-0.5
 62
   256
  6
BYLAYER
  0
ACDBPLACEHOLDER
  5
96
102
{ACAD_REACTORS
330
95
102
}
330
95
  0
ENDSEC
  0
EOF
