  0
SECTION
  2
HEADER
  9
$ACADVER
  1
AC1018
  9
$ACADMAINTVER
 70
     0
  9
$DWGCODEPAGE
  3
ANSI_932
  9
$INSBASE
 10
0.0
 20
0.0
 30
0.0
  9
$EXTMIN
 10
57.82785356899615
 20
21.82308657668563
 30
-0.0015258207003583
  9
$EXTMAX
 10
241.0267905346218
 20
71.31209705977927
 30
0.0000000349246037
  9
$LIMMIN
 10
57.7775237640029
 20
21.82459665403777
  9
$LIMMAX
 10
241.0211979548249
 20
71.31058675199009
  9
$ORTHOMODE
 70
     0
  9
$REGENMODE
 70
     1
  9
$FILLMODE
 70
     1
  9
$QTEXTMODE
 70
     0
  9
$MIRRTEXT
 70
     1
  9
$LTSCALE
 40
1.0
  9
$ATTMODE
 70
     1
  9
$TEXTSIZE
 40
3.5
  9
$TRACEWID
 40
0.5
  9
$TEXTSTYLE
  7
STANDARD
  9
$CLAYER
  8
0
  9
$CELTYPE
  6
ByLayer
  9
$CECOLOR
 62
   256
  9
$CELTSCALE
 40
1.0
  9
$DISPSILH
 70
     0
  9
$DIMSCALE
 40
1.0
  9
$DIMASZ
 40
0.18
  9
$DIMEXO
 40
0.0625
  9
$DIMDLI
 40
0.38
  9
$DIMRND
 40
0.0
  9
$DIMDLE
 40
0.0
  9
$DIMEXE
 40
0.18
  9
$DIMTP
 40
0.0
  9
$DIMTM
 40
0.0
  9
$DIMTXT
 40
0.18
  9
$DIMCEN
 40
0.09
  9
$DIMTSZ
 40
0.0
  9
$DIMTOL
 70
     0
  9
$DIMLIM
 70
     0
  9
$DIMTIH
 70
     1
  9
$DIMTOH
 70
     1
  9
$DIMSE1
 70
     0
  9
$DIMSE2
 70
     0
  9
$DIMTAD
 70
     0
  9
$DIMZIN
 70
     0
  9
$DIMBLK
  1

  9
$DIMASO
 70
     1
  9
$DIMSHO
 70
     1
  9
$DIMPOST
  1

  9
$DIMAPOST
  1

  9
$DIMALT
 70
     0
  9
$DIMALTD
 70
     2
  9
$DIMALTF
 40
25.4
  9
$DIMLFAC
 40
1.0
  9
$DIMTOFL
 70
     0
  9
$DIMTVP
 40
0.0
  9
$DIMTIX
 70
     0
  9
$DIMSOXD
 70
     0
  9
$DIMSAH
 70
     0
  9
$DIMBLK1
  1

  9
$DIMBLK2
  1

  9
$DIMSTYLE
  2
STANDARD
  9
$DIMCLRD
 70
     0
  9
$DIMCLRE
 70
     0
  9
$DIMCLRT
 70
     0
  9
$DIMTFAC
 40
1.0
  9
$DIMGAP
 40
0.09
  9
$DIMJUST
 70
     0
  9
$DIMSD1
 70
     0
  9
$DIMSD2
 70
     0
  9
$DIMTOLJ
 70
     1
  9
$DIMTZIN
 70
     0
  9
$DIMALTZ
 70
     0
  9
$DIMALTTZ
 70
     0
  9
$DIMUPT
 70
     0
  9
$DIMDEC
 70
     4
  9
$DIMTDEC
 70
     4
  9
$DIMALTU
 70
     2
  9
$DIMALTTD
 70
     2
  9
$DIMTXSTY
  7
STANDARD
  9
$DIMAUNIT
 70
     0
  9
$DIMADEC
 70
     0
  9
$DIMALTRND
 40
0.0
  9
$DIMAZIN
 70
     0
  9
$DIMDSEP
 70
    46
  9
$DIMATFIT
 70
     3
  9
$DIMFRAC
 70
     0
  9
$DIMLDRBLK
  1

  9
$DIMLUNIT
 70
     2
  9
$DIMLWD
 70
    -2
  9
$DIMLWE
 70
    -2
  9
$DIMTMOVE
 70
     0
  9
$LUNITS
 70
     2
  9
$LUPREC
 70
     4
  9
$SKETCHINC
 40
0.1
  9
$FILLETRAD
 40
2.0
  9
$AUNITS
 70
     0
  9
$AUPREC
 70
     0
  9
$MENU
  1
ACAD
  9
$ELEVATION
 40
0.0
  9
$PELEVATION
 40
0.0
  9
$THICKNESS
 40
0.0
  9
$LIMCHECK
 70
     0
  9
$CHAMFERA
 40
0.0
  9
$CHAMFERB
 40
0.0
  9
$CHAMFERC
 40
0.0
  9
$CHAMFERD
 40
0.0
  9
$SKPOLY
 70
     0
  9
$TDCREATE
 40
2452095.345760417
  9
$TDUCREATE
 40
2452095.512427083
  9
$TDUPDATE
 40
2453209.453611065
  9
$TDUUPDATE
 40
2453209.620277732
  9
$TDINDWG
 40
0.0006058565
  9
$TDUSRTIMER
 40
0.0006058565
  9
$USRTIMER
 70
     1
  9
$ANGBASE
 50
0.0
  9
$ANGDIR
 70
     0
  9
$PDMODE
 70
     0
  9
$PDSIZE
 40
0.0
  9
$PLINEWID
 40
0.0
  9
$SPLFRAME
 70
     0
  9
$SPLINETYPE
 70
     6
  9
$SPLINESEGS
 70
     8
  9
$HANDSEED
  5
AA
  9
$SURFTAB1
 70
     6
  9
$SURFTAB2
 70
     6
  9
$SURFTYPE
 70
     6
  9
$SURFU
 70
     6
  9
$SURFV
 70
     6
  9
$UCSBASE
  2

  9
$UCSNAME
  2

  9
$UCSORG
 10
0.0
 20
0.0
 30
0.0
  9
$UCSXDIR
 10
1.0
 20
0.0
 30
0.0
  9
$UCSYDIR
 10
0.0
 20
1.0
 30
0.0
  9
$UCSORTHOREF
  2

  9
$UCSORTHOVIEW
 70
     0
  9
$UCSORGTOP
 10
0.0
 20
0.0
 30
0.0
  9
$UCSORGBOTTOM
 10
0.0
 20
0.0
 30
0.0
  9
$UCSORGLEFT
 10
0.0
 20
0.0
 30
0.0
  9
$UCSORGRIGHT
 10
0.0
 20
0.0
 30
0.0
  9
$UCSORGFRONT
 10
0.0
 20
0.0
 30
0.0
  9
$UCSORGBACK
 10
0.0
 20
0.0
 30
0.0
  9
$PUCSBASE
  2

  9
$PUCSNAME
  2

  9
$PUCSORG
 10
0.0
 20
0.0
 30
0.0
  9
$PUCSXDIR
 10
1.0
 20
0.0
 30
0.0
  9
$PUCSYDIR
 10
0.0
 20
1.0
 30
0.0
  9
$PUCSORTHOREF
  2

  9
$PUCSORTHOVIEW
 70
     0
  9
$PUCSORGTOP
 10
0.0
 20
0.0
 30
0.0
  9
$PUCSORGBOTTOM
 10
0.0
 20
0.0
 30
0.0
  9
$PUCSORGLEFT
 10
0.0
 20
0.0
 30
0.0
  9
$PUCSORGRIGHT
 10
0.0
 20
0.0
 30
0.0
  9
$PUCSORGFRONT
 10
0.0
 20
0.0
 30
0.0
  9
$PUCSORGBACK
 10
0.0
 20
0.0
 30
0.0
  9
$USERI1
 70
     0
  9
$USERI2
 70
     0
  9
$USERI3
 70
     0
  9
$USERI4
 70
     0
  9
$USERI5
 70
     0
  9
$USERR1
 40
0.0
  9
$USERR2
 40
0.0
  9
$USERR3
 40
0.0
  9
$USERR4
 40
0.0
  9
$USERR5
 40
0.0
  9
$WORLDVIEW
 70
     1
  9
$SHADEDGE
 70
     3
  9
$SHADEDIF
 70
    70
  9
$TILEMODE
 70
     1
  9
$MAXACTVP
 70
    64
  9
$PINSBASE
 10
0.0
 20
0.0
 30
0.0
  9
$PLIMCHECK
 70
     0
  9
$PEXTMIN
 10
1.000000000000000E+20
 20
1.000000000000000E+20
 30
1.000000000000000E+20
  9
$PEXTMAX
 10
-1.000000000000000E+20
 20
-1.000000000000000E+20
 30
-1.000000000000000E+20
  9
$PLIMMIN
 10
0.0
 20
0.0
  9
$PLIMMAX
 10
12.0
 20
9.0
  9
$UNITMODE
 70
     0
  9
$VISRETAIN
 70
     1
  9
$PLINEGEN
 70
     0
  9
$PSLTSCALE
 70
     1
  9
$TREEDEPTH
 70
  3020
  9
$CMLSTYLE
  2
Standard
  9
$CMLJUST
 70
     0
  9
$CMLSCALE
 40
1.0
  9
$PROXYGRAPHICS
 70
     1
  9
$MEASUREMENT
 70
     0
  9
$CELWEIGHT
370
    -1
  9
$ENDCAPS
280
     0
  9
$JOINSTYLE
280
     0
  9
$LWDISPLAY
290
     0
  9
$INSUNITS
 70
     0
  9
$HYPERLINKBASE
  1

  9
$STYLESHEET
  1

  9
$XEDIT
290
     1
  9
$CEPSNTYPE
380
     0
  9
$PSTYLEMODE
290
     1
  9
$FINGERPRINTGUID
  2
{15936EAD-8478-49EE-A15A-4DB3676AC637}
  9
$VERSIONGUID
  2
{57C1272F-37E1-49AC-8B2B-B6003386AB1E}
  9
$EXTNAMES
290
     1
  9
$PSVPSCALE
 40
0.0
  9
$OLESTARTUP
290
     0
  9
$SORTENTS
280
   127
  9
$INDEXCTL
280
     0
  9
$HIDETEXT
280
     0
  9
$XCLIPFRAME
290
     0
  9
$HALOGAP
280
     0
  9
$OBSCOLOR
 70
   257
  9
$OBSLTYPE
280
     0
  9
$INTERSECTIONDISPLAY
280
     0
  9
$INTERSECTIONCOLOR
 70
   257
  9
$DIMASSOC
280
     1
  9
$PROJECTNAME
  1

  0
ENDSEC
  0
SECTION
  2
CLASSES
  0
CLASS
  1
ACDBDICTIONARYWDFLT
  2
AcDbDictionaryWithDefault
  3
ObjectDBX Classes
 90
        0
 91
        1
280
     0
281
     0
  0
ENDSEC
  0
SECTION
  2
TABLES
  0
TABLE
  2
VPORT
  5
77
330
0
100
AcDbSymbolTable
 70
     2
  0
VPORT
  5
A9
330
77
100
AcDbSymbolTableRecord
100
AcDbViewportTableRecord
  2
*Active
 70
     0
 10
0.0
 20
0.0
 11
1.0
 21
1.0
 12
149.4273220518089
 22
46.56759181823246
 13
0.0
 23
0.0
 14
1.0
 24
1.0
 15
0.0
 25
0.0
 16
0.0
 26
0.0
 36
1.0
 17
0.0
 27
0.0
 37
0.0
 40
113.3637662707431
 41
1.625
 42
50.0
 43
0.0
 44
0.0
 50
0.0
 51
0.0
 71
     0
 72
   100
 73
     1
 74
     1
 75
     0
 76
     0
 77
     0
 78
     0
281
     0
 65
     1
110
0.0
120
0.0
130
0.0
111
1.0
121
0.0
131
0.0
112
0.0
122
1.0
132
0.0
 79
     0
146
0.0
  0
ENDTAB
  0
TABLE
  2
LTYPE
  5
74
330
0
100
AcDbSymbolTable
 70
     9
  0
LTYPE
  5
82
330
74
100
AcDbSymbolTableRecord
100
AcDbLinetypeTableRecord
  2
ByBlock
 70
     0
  3

 72
    65
 73
     0
 40
0.0
  0
LTYPE
  5
83
330
74
100
AcDbSymbolTableRecord
100
AcDbLinetypeTableRecord
  2
ByLayer
 70
     0
  3

 72
    65
 73
     0
 40
0.0
  0
LTYPE
  5
84
330
74
100
AcDbSymbolTableRecord
100
AcDbLinetypeTableRecord
  2
CONTINUOUS
 70
     0
  3
Solid line
 72
    65
 73
     0
 40
0.0
  0
LTYPE
  5
94
330
74
100
AcDbSymbolTableRecord
100
AcDbLinetypeTableRecord
  2
BORDER
 70
     0
  3
__ __ . __ __ .
 72
    65
 73
     6
 40
8.438853416682595
 49
2.411100976195028
 74
     0
 49
-1.205550488097514
 74
     0
 49
2.411100976195028
 74
     0
 49
-1.205550488097514
 74
     0
 49
0.0
 74
     0
 49
-1.205550488097514
 74
     0
  0
LTYPE
  5
95
330
74
100
AcDbSymbolTableRecord
100
AcDbLinetypeTableRecord
  2
CENTER
 70
     0
  3
____ _ ____ _
 72
    65
 73
     4
 40
9.644403904780114
 49
6.027752440487569
 74
     0
 49
-1.205550488097514
 74
     0
 49
1.205550488097514
 74
     0
 49
-1.205550488097514
 74
     0
  0
LTYPE
  5
96
330
74
100
AcDbSymbolTableRecord
100
AcDbLinetypeTableRecord
  2
DASHDOT
 70
     0
  3
__ . __ . __ .
 72
    65
 73
     4
 40
4.822201952390053
 49
2.411100976195028
 74
     0
 49
-1.205550488097514
 74
     0
 49
0.0
 74
     0
 49
-1.205550488097514
 74
     0
  0
LTYPE
  5
97
330
74
100
AcDbSymbolTableRecord
100
AcDbLinetypeTableRecord
  2
DASHED
 70
     0
  3
__ __ __ __ __
 72
    65
 73
     2
 40
3.61665146429254
 49
2.411100976195028
 74
     0
 49
-1.205550488097514
 74
     0
  0
LTYPE
  5
98
330
74
100
AcDbSymbolTableRecord
100
AcDbLinetypeTableRecord
  2
DIVIDE
 70
     0
  3
__ . . __ . . 
 72
    65
 73
     6
 40
6.027752440487569
 49
2.411100976195028
 74
     0
 49
-1.205550488097514
 74
     0
 49
0.0
 74
     0
 49
-1.205550488097514
 74
     0
 49
0.0
 74
     0
 49
-1.205550488097514
 74
     0
  0
LTYPE
  5
99
330
74
100
AcDbSymbolTableRecord
100
AcDbLinetypeTableRecord
  2
DOT
 70
     0
  3
..............
 72
    65
 73
     4
 40
2.411100976195028
 49
0.0
 74
     0
 49
-1.205550488097514
 74
     0
 49
0.0
 74
     0
 49
-1.205550488097514
 74
     0
  0
LTYPE
  5
9A
330
74
100
AcDbSymbolTableRecord
100
AcDbLinetypeTableRecord
  2
HIDDEN
 70
     0
  3
_ _ _ _ _ _ _
 72
    65
 73
     2
 40
1.808325732146269
 49
1.205550488097514
 74
     0
 49
-0.6027752440487572
 74
     0
  0
LTYPE
  5
9B
330
74
100
AcDbSymbolTableRecord
100
AcDbLinetypeTableRecord
  2
PHANTOM
 70
     0
  3
_____ _ _ _____ _ _ 
 72
    65
 73
     6
 40
12.05550488097514
 49
6.027752440487569
 74
     0
 49
-1.205550488097514
 74
     0
 49
1.205550488097514
 74
     0
 49
-1.205550488097514
 74
     0
 49
1.205550488097514
 74
     0
 49
-1.205550488097514
 74
     0
  0
ENDTAB
  0
TABLE
  2
LAYER
  5
71
330
0
100
AcDbSymbolTable
 70
     2
  0
LAYER
  5
7F
330
71
100
AcDbSymbolTableRecord
100
AcDbLayerTableRecord
  2
0
 70
     0
 62
     7
  6
CONTINUOUS
370
    -3
390
7E
  0
LAYER
  5
9C
330
71
100
AcDbSymbolTableRecord
100
AcDbLayerTableRecord
  2
1
 70
     0
 62
     7
  6
CONTINUOUS
370
    -3
390
7E
  0
ENDTAB
  0
TABLE
  2
STYLE
  5
72
330
0
100
AcDbSymbolTable
 70
     4
  0
STYLE
  5
80
330
72
100
AcDbSymbolTableRecord
100
AcDbTextStyleTableRecord
  2
STANDARD
 70
     0
 40
0.0
 41
1.0
 50
0.0
 71
     0
 42
3.5
  3
txt
  4

  0
STYLE
  5
9D
330
72
100
AcDbSymbolTableRecord
100
AcDbTextStyleTableRecord
  2
SIMPLEX
 70
     0
 40
0.0
 41
1.0
 50
0.0
 71
     0
 42
3.5
  3
simplex
  4

  0
STYLE
  5
9E
330
72
100
AcDbSymbolTableRecord
100
AcDbTextStyleTableRecord
  2
COMPLEX
 70
     0
 40
0.0
 41
1.0
 50
0.0
 71
     0
 42
3.5
  3
complex
  4

  0
STYLE
  5
9F
330
72
100
AcDbSymbolTableRecord
100
AcDbTextStyleTableRecord
  2
ITALIC
 70
     0
 40
0.0
 41
1.0
 50
0.0
 71
     0
 42
3.5
  3
italic
  4

  0
ENDTAB
  0
TABLE
  2
VIEW
  5
75
330
0
100
AcDbSymbolTable
 70
     0
  0
ENDTAB
  0
TABLE
  2
UCS
  5
76
330
0
100
AcDbSymbolTable
 70
     0
  0
ENDTAB
  0
TABLE
  2
APPID
  5
78
330
0
100
AcDbSymbolTable
 70
     1
  0
APPID
  5
81
330
78
100
AcDbSymbolTableRecord
100
AcDbRegAppTableRecord
  2
ACAD
 70
     0
  0
ENDTAB
  0
TABLE
  2
DIMSTYLE
  5
79
330
0
100
AcDbSymbolTable
 70
     1
100
AcDbDimStyleTable
 71
     0
  0
DIMSTYLE
105
A0
330
79
100
AcDbSymbolTableRecord
100
AcDbDimStyleTableRecord
  2
STANDARD
 70
     0
279
     2
340
80
  0
ENDTAB
  0
TABLE
  2
BLOCK_RECORD
  5
70
330
0
100
AcDbSymbolTable
 70
     2
  0
BLOCK_RECORD
  5
8F
330
70
100
AcDbSymbolTableRecord
100
AcDbBlockTableRecord
  2
*Model_Space
340
92
  0
BLOCK_RECORD
  5
8B
330
70
100
AcDbSymbolTableRecord
100
AcDbBlockTableRecord
  2
*Paper_Space
340
8E
  0
BLOCK_RECORD
  5
A5
330
70
100
AcDbSymbolTableRecord
100
AcDbBlockTableRecord
  2
$MODEL_SPACE
340
0
  0
BLOCK_RECORD
  5
A7
330
70
100
AcDbSymbolTableRecord
100
AcDbBlockTableRecord
  2
$PAPER_SPACE
340
0
  0
ENDTAB
  0
ENDSEC
  0
SECTION
  2
BLOCKS
  0
BLOCK
  5
90
330
8F
100
AcDbEntity
  8
0
100
AcDbBlockBegin
  2
*Model_Space
 70
     0
 10
0.0
 20
0.0
 30
0.0
  3
*Model_Space
  1

  0
ENDBLK
  5
91
330
8F
100
AcDbEntity
  8
0
100
AcDbBlockEnd
  0
BLOCK
  5
8C
330
8B
100
AcDbEntity
 67
     1
  8
0
100
AcDbBlockBegin
  2
*Paper_Space
 70
     0
 10
0.0
 20
0.0
 30
0.0
  3
*Paper_Space
  1

  0
ENDBLK
  5
8D
330
8B
100
AcDbEntity
 67
     1
  8
0
100
AcDbBlockEnd
  0
BLOCK
  5
A6
330
A5
100
AcDbEntity
  8
0
100
AcDbBlockBegin
  2
$MODEL_SPACE
 70
     0
 10
0.0
 20
0.0
 30
0.0
  3
$MODEL_SPACE
  1

  0
ENDBLK
  5
20
330
A5
100
AcDbEntity
  8
0
100
AcDbBlockEnd
  0
BLOCK
  5
A8
330
A7
100
AcDbEntity
  8
0
100
AcDbBlockBegin
  2
$PAPER_SPACE
 70
     0
 10
0.0
 20
0.0
 30
0.0
  3
$PAPER_SPACE
  1

  0
ENDBLK
  5
1C
330
A7
100
AcDbEntity
  8
0
100
AcDbBlockEnd
  0
ENDSEC
  0
SECTION
  2
ENTITIES
  0
LINE
  5
33
330
8F
100
AcDbEntity
  8
1
  6
DASHDOT
 62
     3
100
AcDbLine
 10
169.4937787910434
 20
37.82459665403777
 30
0.0
 11
172.4937787910433
 21
37.82459665403777
 31
0.0
  0
LINE
  5
34
330
8F
100
AcDbEntity
  8
1
  6
DASHDOT
 62
     3
100
AcDbLine
 10
132.4937787910434
 20
37.82459665403777
 30
0.0
 11
129.4937787910434
 21
37.82459665403777
 31
0.0
  0
LINE
  5
35
330
8F
100
AcDbEntity
  8
1
  6
DASHED
 62
     3
100
AcDbLine
 10
133.4937787910434
 20
30.82459665403778
 30
0.0
 11
132.4937787910434
 21
30.82459665403778
 31
0.0
  0
LINE
  5
36
330
8F
100
AcDbEntity
  8
1
  6
DASHED
 62
     3
100
AcDbLine
 10
169.4937787910434
 20
33.82459665403777
 30
0.0
 11
133.4937787910434
 21
33.82459665403777
 31
0.0
  0
LINE
  5
37
330
8F
100
AcDbEntity
  8
1
  6
DASHED
 62
     3
100
AcDbLine
 10
133.4937787910434
 20
41.82459665403775
 30
0.0
 11
169.4937787910434
 21
41.82459665403775
 31
0.0
  0
LINE
  5
38
330
8F
100
AcDbEntity
  8
1
  6
DASHED
 62
     3
100
AcDbLine
 10
133.4937787910434
 20
44.82459665403776
 30
0.0
 11
133.4937787910434
 21
30.82459665403778
 31
0.0
  0
LINE
  5
39
330
8F
100
AcDbEntity
  8
1
  6
DASHED
 62
     3
100
AcDbLine
 10
132.4937787910434
 20
44.82459665403776
 30
0.0
 11
133.4937787910434
 21
44.82459665403776
 31
0.0
  0
LINE
  5
3A
330
8F
100
AcDbEntity
  8
1
 62
     7
100
AcDbLine
 10
165.4937787910434
 20
39.37459665403777
 30
0.0
 11
165.4937787910434
 21
36.27459665403777
 31
0.0
  0
LINE
  5
3B
330
8F
100
AcDbEntity
  8
1
 62
     7
100
AcDbLine
 10
132.4937787910434
 20
47.82459665403776
 30
0.0
 11
132.4937787910434
 21
27.82459665403778
 31
0.0
  0
LINE
  5
3C
330
8F
100
AcDbEntity
  8
1
 62
     7
100
AcDbLine
 10
162.9937787910434
 20
53.82459665403777
 30
0.0
 11
162.9937787910434
 21
21.82459665403777
 31
0.0
  0
LINE
  5
3D
330
8F
100
AcDbEntity
  8
1
 62
     7
100
AcDbLine
 10
169.4937787910434
 20
42.82459665403772
 30
0.0
 11
169.4937787910434
 21
39.37459665403776
 31
0.0
  0
LINE
  5
3E
330
8F
100
AcDbEntity
  8
1
 62
     7
100
AcDbLine
 10
164.4937787910434
 20
42.82459665403781
 30
0.0
 11
169.4937787910434
 21
42.82459665403772
 31
0.0
  0
LINE
  5
3F
330
8F
100
AcDbEntity
  8
1
 62
     7
100
AcDbLine
 10
169.4937787910434
 20
39.37459665403776
 30
0.0
 11
165.4937787910434
 21
39.37459665403777
 31
0.0
  0
LINE
  5
40
330
8F
100
AcDbEntity
  8
1
 62
     7
100
AcDbLine
 10
132.4937787910434
 20
47.82459665403776
 30
0.0
 11
134.4937787910434
 21
47.82459665403776
 31
0.0
  0
LINE
  5
41
330
8F
100
AcDbEntity
  8
1
 62
     7
100
AcDbLine
 10
134.4937787910434
 20
53.82459665403777
 30
0.0
 11
164.4937787910434
 21
53.82459665403777
 31
0.0
  0
LINE
  5
42
330
8F
100
AcDbEntity
  8
1
 62
     7
100
AcDbLine
 10
134.4937787910434
 20
53.82459665403777
 30
0.0
 11
134.4937787910434
 21
21.82459665403777
 31
0.0
  0
LINE
  5
43
330
8F
100
AcDbEntity
  8
1
  6
DASHDOT
 62
     3
100
AcDbLine
 10
63.44737714474251
 20
30.22416547592612
 30
0.0
 11
67.23766456155153
 21
32.41248893632686
 31
0.0
  0
LINE
  5
44
330
8F
100
AcDbEntity
  8
1
  6
DASHDOT
 62
     3
100
AcDbLine
 10
76.61171010466245
 20
53.02545901026105
 30
0.0
 11
76.61171010466245
 21
48.64881208945958
 31
0.0
  0
LINE
  5
45
330
8F
100
AcDbEntity
  8
1
  6
DASHDOT
 62
     3
100
AcDbLine
 10
74.60097486651637
 20
37.82459665403777
 30
0.0
 11
78.62244534280851
 21
37.82459665403777
 31
0.0
  0
LINE
  5
46
330
8F
100
AcDbEntity
  8
1
  6
DASHDOT
 62
     3
100
AcDbLine
 10
76.61171010466245
 20
39.83533189218382
 30
0.0
 11
76.61171010466245
 21
35.81386141589173
 31
0.0
  0
LINE
  5
47
330
8F
100
AcDbEntity
  8
1
  6
DASHDOT
 62
     3
100
AcDbLine
 10
89.77604306458241
 20
30.22416547592612
 30
0.0
 11
85.98575564777338
 21
32.41248893632686
 31
0.0
  0
LINE
  5
48
330
8F
100
AcDbEntity
  8
1
 62
     7
100
AcDbLine
 10
169.4937787910434
 20
36.27459665403777
 30
0.0
 11
169.4937787910434
 21
32.82459665403776
 31
0.0
  0
LINE
  5
49
330
8F
100
AcDbEntity
  8
1
 62
     7
100
AcDbLine
 10
169.4937787910434
 20
32.82459665403776
 30
0.0
 11
164.4937787910434
 21
32.82459665403772
 31
0.0
  0
LINE
  5
4A
330
8F
100
AcDbEntity
  8
1
 62
     7
100
AcDbLine
 10
165.4937787910434
 20
36.27459665403777
 30
0.0
 11
169.4937787910434
 21
36.27459665403777
 31
0.0
  0
LINE
  5
4B
330
8F
100
AcDbEntity
  8
1
 62
     7
100
AcDbLine
 10
134.4937787910434
 20
27.82459665403778
 30
0.0
 11
132.4937787910434
 21
27.82459665403778
 31
0.0
  0
LINE
  5
4C
330
8F
100
AcDbEntity
  8
1
 62
     7
100
AcDbLine
 10
164.4937787910434
 20
21.82459665403777
 30
0.0
 11
134.4937787910434
 21
21.82459665403777
 31
0.0
  0
LINE
  5
4D
330
8F
100
AcDbEntity
  8
1
 62
     7
100
AcDbLine
 10
164.4937787910434
 20
21.82459665403777
 30
0.0
 11
164.4937787910434
 21
53.82459665403777
 31
0.0
  0
LINE
  5
4E
330
8F
100
AcDbEntity
  8
1
  6
DASHDOT
 62
     3
100
AcDbLine
 10
223.0104627166789
 20
37.82459665403777
 30
0.0
 11
227.0319331929711
 21
37.82459665403777
 31
0.0
  0
LINE
  5
4F
330
8F
100
AcDbEntity
  8
1
  6
DASHDOT
 62
     3
100
AcDbLine
 10
225.0211979548248
 20
35.81386141589173
 30
0.0
 11
225.0211979548248
 21
39.83533189218382
 31
0.0
  0
LINE
  5
50
330
8F
100
AcDbEntity
  8
1
 62
     7
100
AcDbLine
 10
220.2675151719713
 20
39.37459665403776
 30
0.0
 11
221.3337191413264
 21
39.37459665403776
 31
0.0
  0
LINE
  5
51
330
8F
100
AcDbEntity
  8
1
 62
     7
100
AcDbLine
 10
228.7086767683235
 20
39.37459665403776
 30
0.0
 11
229.7748807376786
 21
39.37459665403776
 31
0.0
  0
LINE
  5
52
330
8F
100
AcDbEntity
  8
1
 62
     7
100
AcDbLine
 10
220.2675151719713
 20
36.27459665403777
 30
0.0
 11
221.3337191413264
 21
36.27459665403777
 31
0.0
  0
LINE
  5
53
330
8F
100
AcDbEntity
  8
1
 62
     7
100
AcDbLine
 10
228.7086767683235
 20
36.27459665403777
 30
0.0
 11
229.7748807376786
 21
36.27459665403777
 31
0.0
  0
ARC
  5
54
330
8F
100
AcDbEntity
  8
1
  6
DASHDOT
 62
     3
100
AcDbCircle
 10
76.61171010466245
 20
37.82459665403777
 30
0.0
 40
12.99999999999999
100
AcDbArc
 50
200.288368888318
 51
219.7116311116818
  0
ARC
  5
55
330
8F
100
AcDbEntity
  8
1
  6
DASHDOT
 62
     3
100
AcDbCircle
 10
76.61171010466245
 20
37.82459665403777
 30
0.0
 40
13.0
100
AcDbArc
 50
80.28836888831801
 51
99.71163111168188
  0
ARC
  5
56
330
8F
100
AcDbEntity
  8
1
  6
DASHDOT
 62
     3
100
AcDbCircle
 10
76.61171010466245
 20
37.82459665403777
 30
0.0
 40
13.0
100
AcDbArc
 50
320.2883688883181
 51
339.7116311116818
  0
CIRCLE
  5
57
330
8F
100
AcDbEntity
  8
1
 62
     7
100
AcDbCircle
 10
65.35337985546475
 20
31.32459665403778
 30
0.0
 40
1.200000000000003
  0
CIRCLE
  5
58
330
8F
100
AcDbEntity
  8
1
 62
     3
100
AcDbCircle
 10
65.35337985546475
 20
31.32459665403778
 30
0.0
 40
1.5
  0
CIRCLE
  5
59
330
8F
100
AcDbEntity
  8
1
 62
     7
100
AcDbCircle
 10
76.61171010466245
 20
50.82459665403776
 30
0.0
 40
1.200000000000003
  0
CIRCLE
  5
5A
330
8F
100
AcDbEntity
  8
1
 62
     3
100
AcDbCircle
 10
76.61171010466245
 20
50.82459665403776
 30
0.0
 40
1.5
  0
CIRCLE
  5
5B
330
8F
100
AcDbEntity
  8
1
 62
     7
100
AcDbCircle
 10
76.61171010466245
 20
37.82459665403777
 30
0.0
 40
7.0
  0
CIRCLE
  5
5C
330
8F
100
AcDbEntity
  8
1
 62
     7
100
AcDbCircle
 10
87.87004035386015
 20
31.32459665403777
 30
0.0
 40
1.200000000000003
  0
CIRCLE
  5
5D
330
8F
100
AcDbEntity
  8
1
 62
     3
100
AcDbCircle
 10
87.87004035386015
 20
31.32459665403777
 30
0.0
 40
1.5
  0
CIRCLE
  5
5E
330
8F
100
AcDbEntity
  8
1
 62
     7
100
AcDbCircle
 10
76.61171010466245
 20
37.82459665403777
 30
0.0
 40
4.0
  0
CIRCLE
  5
5F
330
8F
100
AcDbEntity
  8
1
 62
     7
100
AcDbCircle
 10
76.61171010466245
 20
37.82459665403777
 30
0.0
 40
9.999999999999971
  0
CIRCLE
  5
60
330
8F
100
AcDbEntity
  8
1
 62
     7
100
AcDbCircle
 10
76.61171010466245
 20
37.82459665403777
 30
0.0
 40
15.99999999999998
  0
CIRCLE
  5
61
330
8F
100
AcDbEntity
  8
1
 62
     7
100
AcDbCircle
 10
225.0211979548248
 20
37.82459665403777
 30
0.0
 40
6.5
  0
CIRCLE
  5
62
330
8F
100
AcDbEntity
  8
1
 62
     7
100
AcDbCircle
 10
225.0211979548248
 20
37.82459665403777
 30
0.0
 40
10.5
  0
CIRCLE
  5
63
330
8F
100
AcDbEntity
  8
1
 62
     7
100
AcDbCircle
 10
225.0211979548248
 20
37.82459665403777
 30
0.0
 40
16.0
  0
CIRCLE
  5
64
330
8F
100
AcDbEntity
  8
1
 62
     7
100
AcDbCircle
 10
225.0211979548248
 20
37.82459665403777
 30
0.0
 40
16.0
  0
CIRCLE
  5
65
330
8F
100
AcDbEntity
  8
1
 62
     7
100
AcDbCircle
 10
225.0211979548248
 20
37.82459665403777
 30
0.0
 40
4.999999999999913
  0
CIRCLE
  5
66
330
8F
100
AcDbEntity
  8
1
 62
     7
100
AcDbCircle
 10
225.0211979548248
 20
37.82459665403777
 30
0.0
 40
4.0
  0
TEXT
  5
67
330
8F
100
AcDbEntity
  8
1
 62
     7
100
AcDbText
 10
57.83109519257433
 20
68.81058675199009
 30
0.0
 40
2.5
  1
OPL 1.5BR
 41
0.9
  7
SIMPLEX
 72
     1
 11
66.40252376400289
 21
68.81058675199009
 31
0.0
100
AcDbText
  0
ENDSEC
  0
SECTION
  2
OBJECTS
  0
DICTIONARY
  5
7B
330
0
100
AcDbDictionary
281
     1
  3
ACAD_COLOR
350
8A
  3
ACAD_GROUP
350
7C
  3
ACAD_LAYOUT
350
88
  3
ACAD_MATERIAL
350
89
  3
ACAD_MLINESTYLE
350
85
  3
ACAD_PLOTSETTINGS
350
87
  3
ACAD_PLOTSTYLENAME
350
7D
  0
DICTIONARY
  5
8A
102
{ACAD_REACTORS
330
7B
102
}
330
7B
100
AcDbDictionary
281
     1
  0
DICTIONARY
  5
7C
102
{ACAD_REACTORS
330
7B
102
}
330
7B
100
AcDbDictionary
281
     1
  0
DICTIONARY
  5
88
102
{ACAD_REACTORS
330
7B
102
}
330
7B
100
AcDbDictionary
281
     1
  3
Layout1
350
8E
  3
Model
350
92
  0
DICTIONARY
  5
89
102
{ACAD_REACTORS
330
7B
102
}
330
7B
100
AcDbDictionary
281
     1
  0
DICTIONARY
  5
85
102
{ACAD_REACTORS
330
7B
102
}
330
7B
100
AcDbDictionary
281
     1
  3
Standard
350
86
  0
DICTIONARY
  5
87
102
{ACAD_REACTORS
330
7B
102
}
330
7B
100
AcDbDictionary
281
     1
  0
ACDBDICTIONARYWDFLT
  5
7D
102
{ACAD_REACTORS
330
7B
102
}
330
7B
100
AcDbDictionary
281
     1
  3
Normal
350
7E
100
AcDbDictionaryWithDefault
340
7E
  0
LAYOUT
  5
8E
102
{ACAD_REACTORS
330
88
102
}
330
88
100
AcDbPlotSettings
  1

  2
\\Ogura1\HP Color LaserJet 4600 PCL 5c
  4

  6

 40
0.0
 41
0.0
 42
0.0
 43
0.0
 44
0.0
 45
0.0
 46
0.0
 47
0.0
 48
0.0
 49
0.0
140
0.0
141
0.0
142
1.0
143
1.0
 70
   688
 72
     0
 73
     0
 74
     5
  7

 75
    16
147
1.0
 76
     0
 77
     2
 78
   300
148
0.0
149
0.0
100
AcDbLayout
  1
Layout1
 70
     1
 71
     1
 10
0.0
 20
0.0
 11
12.0
 21
9.0
 12
0.0
 22
0.0
 32
0.0
 14
1.000000000000000E+20
 24
1.000000000000000E+20
 34
1.000000000000000E+20
 15
-1.000000000000000E+20
 25
-1.000000000000000E+20
 35
-1.000000000000000E+20
146
0.0
 13
0.0
 23
0.0
 33
0.0
 16
1.0
 26
0.0
 36
0.0
 17
0.0
 27
1.0
 37
0.0
 76
     0
330
8B
  0
LAYOUT
  5
92
102
{ACAD_REACTORS
330
88
102
}
330
88
100
AcDbPlotSettings
  1

  2
\\Ogura1\HP Color LaserJet 4600 PCL 5c
  4

  6

 40
0.0
 41
0.0
 42
0.0
 43
0.0
 44
0.0
 45
0.0
 46
0.0
 47
0.0
 48
0.0
 49
0.0
140
0.0
141
0.0
142
1.0
143
1.0
 70
  1712
 72
     0
 73
     0
 74
     0
  7

 75
     0
147
1.0
 76
     0
 77
     2
 78
   300
148
0.0
149
0.0
100
AcDbLayout
  1
Model
 70
     1
 71
     0
 10
0.0
 20
0.0
 11
12.0
 21
9.0
 12
0.0
 22
0.0
 32
0.0
 14
0.0
 24
0.0
 34
0.0
 15
0.0
 25
0.0
 35
0.0
146
0.0
 13
0.0
 23
0.0
 33
0.0
 16
1.0
 26
0.0
 36
0.0
 17
0.0
 27
1.0
 37
0.0
 76
     0
330
8F
  0
MLINESTYLE
  5
86
102
{ACAD_REACTORS
330
85
102
}
330
85
100
AcDbMlineStyle
  2
STANDARD
 70
     0
  3

 62
   256
 51
90.0
 52
90.0
 71
     2
 49
0.5
 62
   256
  6
BYLAYER
 49
-0.5
 62
   256
  6
BYLAYER
  0
ACDBPLACEHOLDER
  5
7E
102
{ACAD_REACTORS
330
7D
102
}
330
7D
  0
ENDSEC
  0
EOF
