  0
SECTION
  2
HEADER
  9
$ACADVER
  1
AC1018
  9
$ACADMAINTVER
 70
     0
  9
$DWGCODEPAGE
  3
ANSI_932
  9
$INSBASE
 10
0.0
 20
0.0
 30
0.0
  9
$EXTMIN
 10
-115.697618088335
 20
-17.5063163700532
 30
-0.0015258207003583
  9
$EXTMAX
 10
39.39987252065117
 20
34.28782419671417
 30
0.0000000349246037
  9
$LIMMIN
 10
-116.215243266814
 20
-17.50473595537369
  9
$LIMMAX
 10
39.39512330681805
 20
34.2862435408641
  9
$ORTHOMODE
 70
     0
  9
$REGENMODE
 70
     1
  9
$FILLMODE
 70
     1
  9
$QTEXTMODE
 70
     0
  9
$MIRRTEXT
 70
     1
  9
$LTSCALE
 40
1.0
  9
$ATTMODE
 70
     1
  9
$TEXTSIZE
 40
3.5
  9
$TRACEWID
 40
0.5
  9
$TEXTSTYLE
  7
STANDARD
  9
$CLAYER
  8
0
  9
$CELTYPE
  6
ByLayer
  9
$CECOLOR
 62
   256
  9
$CELTSCALE
 40
1.0
  9
$DISPSILH
 70
     0
  9
$DIMSCALE
 40
1.0
  9
$DIMASZ
 40
0.18
  9
$DIMEXO
 40
0.0625
  9
$DIMDLI
 40
0.38
  9
$DIMRND
 40
0.0
  9
$DIMDLE
 40
0.0
  9
$DIMEXE
 40
0.18
  9
$DIMTP
 40
0.0
  9
$DIMTM
 40
0.0
  9
$DIMTXT
 40
0.18
  9
$DIMCEN
 40
0.09
  9
$DIMTSZ
 40
0.0
  9
$DIMTOL
 70
     0
  9
$DIMLIM
 70
     0
  9
$DIMTIH
 70
     1
  9
$DIMTOH
 70
     1
  9
$DIMSE1
 70
     0
  9
$DIMSE2
 70
     0
  9
$DIMTAD
 70
     0
  9
$DIMZIN
 70
     0
  9
$DIMBLK
  1

  9
$DIMASO
 70
     1
  9
$DIMSHO
 70
     1
  9
$DIMPOST
  1

  9
$DIMAPOST
  1

  9
$DIMALT
 70
     0
  9
$DIMALTD
 70
     2
  9
$DIMALTF
 40
25.4
  9
$DIMLFAC
 40
1.0
  9
$DIMTOFL
 70
     0
  9
$DIMTVP
 40
0.0
  9
$DIMTIX
 70
     0
  9
$DIMSOXD
 70
     0
  9
$DIMSAH
 70
     0
  9
$DIMBLK1
  1

  9
$DIMBLK2
  1

  9
$DIMSTYLE
  2
STANDARD
  9
$DIMCLRD
 70
     0
  9
$DIMCLRE
 70
     0
  9
$DIMCLRT
 70
     0
  9
$DIMTFAC
 40
1.0
  9
$DIMGAP
 40
0.09
  9
$DIMJUST
 70
     0
  9
$DIMSD1
 70
     0
  9
$DIMSD2
 70
     0
  9
$DIMTOLJ
 70
     1
  9
$DIMTZIN
 70
     0
  9
$DIMALTZ
 70
     0
  9
$DIMALTTZ
 70
     0
  9
$DIMUPT
 70
     0
  9
$DIMDEC
 70
     4
  9
$DIMTDEC
 70
     4
  9
$DIMALTU
 70
     2
  9
$DIMALTTD
 70
     2
  9
$DIMTXSTY
  7
STANDARD
  9
$DIMAUNIT
 70
     0
  9
$DIMADEC
 70
     0
  9
$DIMALTRND
 40
0.0
  9
$DIMAZIN
 70
     0
  9
$DIMDSEP
 70
    46
  9
$DIMATFIT
 70
     3
  9
$DIMFRAC
 70
     0
  9
$DIMLDRBLK
  1

  9
$DIMLUNIT
 70
     2
  9
$DIMLWD
 70
    -2
  9
$DIMLWE
 70
    -2
  9
$DIMTMOVE
 70
     0
  9
$LUNITS
 70
     2
  9
$LUPREC
 70
     4
  9
$SKETCHINC
 40
0.1
  9
$FILLETRAD
 40
2.0
  9
$AUNITS
 70
     0
  9
$AUPREC
 70
     0
  9
$MENU
  1
ACAD
  9
$ELEVATION
 40
0.0
  9
$PELEVATION
 40
0.0
  9
$THICKNESS
 40
0.0
  9
$LIMCHECK
 70
     0
  9
$CHAMFERA
 40
0.0
  9
$CHAMFERB
 40
0.0
  9
$CHAMFERC
 40
0.0
  9
$CHAMFERD
 40
0.0
  9
$SKPOLY
 70
     0
  9
$TDCREATE
 40
2452095.336061343
  9
$TDUCREATE
 40
2452095.502728009
  9
$TDUPDATE
 40
2453209.449639965
  9
$TDUUPDATE
 40
2453209.616306632
  9
$TDINDWG
 40
0.0005526968
  9
$TDUSRTIMER
 40
0.0005526968
  9
$USRTIMER
 70
     1
  9
$ANGBASE
 50
0.0
  9
$ANGDIR
 70
     0
  9
$PDMODE
 70
     0
  9
$PDSIZE
 40
0.0
  9
$PLINEWID
 40
0.0
  9
$SPLFRAME
 70
     0
  9
$SPLINETYPE
 70
     6
  9
$SPLINESEGS
 70
     8
  9
$HANDSEED
  5
11F
  9
$SURFTAB1
 70
     6
  9
$SURFTAB2
 70
     6
  9
$SURFTYPE
 70
     6
  9
$SURFU
 70
     6
  9
$SURFV
 70
     6
  9
$UCSBASE
  2

  9
$UCSNAME
  2

  9
$UCSORG
 10
0.0
 20
0.0
 30
0.0
  9
$UCSXDIR
 10
1.0
 20
0.0
 30
0.0
  9
$UCSYDIR
 10
0.0
 20
1.0
 30
0.0
  9
$UCSORTHOREF
  2

  9
$UCSORTHOVIEW
 70
     0
  9
$UCSORGTOP
 10
0.0
 20
0.0
 30
0.0
  9
$UCSORGBOTTOM
 10
0.0
 20
0.0
 30
0.0
  9
$UCSORGLEFT
 10
0.0
 20
0.0
 30
0.0
  9
$UCSORGRIGHT
 10
0.0
 20
0.0
 30
0.0
  9
$UCSORGFRONT
 10
0.0
 20
0.0
 30
0.0
  9
$UCSORGBACK
 10
0.0
 20
0.0
 30
0.0
  9
$PUCSBASE
  2

  9
$PUCSNAME
  2

  9
$PUCSORG
 10
0.0
 20
0.0
 30
0.0
  9
$PUCSXDIR
 10
1.0
 20
0.0
 30
0.0
  9
$PUCSYDIR
 10
0.0
 20
1.0
 30
0.0
  9
$PUCSORTHOREF
  2

  9
$PUCSORTHOVIEW
 70
     0
  9
$PUCSORGTOP
 10
0.0
 20
0.0
 30
0.0
  9
$PUCSORGBOTTOM
 10
0.0
 20
0.0
 30
0.0
  9
$PUCSORGLEFT
 10
0.0
 20
0.0
 30
0.0
  9
$PUCSORGRIGHT
 10
0.0
 20
0.0
 30
0.0
  9
$PUCSORGFRONT
 10
0.0
 20
0.0
 30
0.0
  9
$PUCSORGBACK
 10
0.0
 20
0.0
 30
0.0
  9
$USERI1
 70
     0
  9
$USERI2
 70
     0
  9
$USERI3
 70
     0
  9
$USERI4
 70
     0
  9
$USERI5
 70
     0
  9
$USERR1
 40
0.0
  9
$USERR2
 40
0.0
  9
$USERR3
 40
0.0
  9
$USERR4
 40
0.0
  9
$USERR5
 40
0.0
  9
$WORLDVIEW
 70
     1
  9
$SHADEDGE
 70
     3
  9
$SHADEDIF
 70
    70
  9
$TILEMODE
 70
     1
  9
$MAXACTVP
 70
    64
  9
$PINSBASE
 10
0.0
 20
0.0
 30
0.0
  9
$PLIMCHECK
 70
     0
  9
$PEXTMIN
 10
1.000000000000000E+20
 20
1.000000000000000E+20
 30
1.000000000000000E+20
  9
$PEXTMAX
 10
-1.000000000000000E+20
 20
-1.000000000000000E+20
 30
-1.000000000000000E+20
  9
$PLIMMIN
 10
0.0
 20
0.0
  9
$PLIMMAX
 10
12.0
 20
9.0
  9
$UNITMODE
 70
     0
  9
$VISRETAIN
 70
     1
  9
$PLINEGEN
 70
     0
  9
$PSLTSCALE
 70
     1
  9
$TREEDEPTH
 70
  3020
  9
$CMLSTYLE
  2
Standard
  9
$CMLJUST
 70
     0
  9
$CMLSCALE
 40
1.0
  9
$PROXYGRAPHICS
 70
     1
  9
$MEASUREMENT
 70
     0
  9
$CELWEIGHT
370
    -1
  9
$ENDCAPS
280
     0
  9
$JOINSTYLE
280
     0
  9
$LWDISPLAY
290
     0
  9
$INSUNITS
 70
     0
  9
$HYPERLINKBASE
  1

  9
$STYLESHEET
  1

  9
$XEDIT
290
     1
  9
$CEPSNTYPE
380
     0
  9
$PSTYLEMODE
290
     1
  9
$FINGERPRINTGUID
  2
{77B613F2-AAA2-4EC4-AE7E-EDEA57FA33E6}
  9
$VERSIONGUID
  2
{E0D78A70-F3FF-47DB-89C5-6DE8B85856B4}
  9
$EXTNAMES
290
     1
  9
$PSVPSCALE
 40
0.0
  9
$OLESTARTUP
290
     0
  9
$SORTENTS
280
   127
  9
$INDEXCTL
280
     0
  9
$HIDETEXT
280
     0
  9
$XCLIPFRAME
290
     0
  9
$HALOGAP
280
     0
  9
$OBSCOLOR
 70
   257
  9
$OBSLTYPE
280
     0
  9
$INTERSECTIONDISPLAY
280
     0
  9
$INTERSECTIONCOLOR
 70
   257
  9
$DIMASSOC
280
     1
  9
$PROJECTNAME
  1

  0
ENDSEC
  0
SECTION
  2
CLASSES
  0
CLASS
  1
ACDBDICTIONARYWDFLT
  2
AcDbDictionaryWithDefault
  3
ObjectDBX Classes
 90
        0
 91
        1
280
     0
281
     0
  0
ENDSEC
  0
SECTION
  2
TABLES
  0
TABLE
  2
VPORT
  5
EC
330
0
100
AcDbSymbolTable
 70
     2
  0
VPORT
  5
11E
330
EC
100
AcDbSymbolTableRecord
100
AcDbViewportTableRecord
  2
*Active
 70
     0
 10
0.0
 20
0.0
 11
1.0
 21
1.0
 12
-38.14887278384191
 22
8.390753913330485
 13
0.0
 23
0.0
 14
1.0
 24
1.0
 15
0.0
 25
0.0
 16
0.0
 26
0.0
 36
1.0
 17
0.0
 27
0.0
 37
0.0
 40
95.97455075776423
 41
1.625
 42
50.0
 43
0.0
 44
0.0
 50
0.0
 51
0.0
 71
     0
 72
   100
 73
     1
 74
     1
 75
     0
 76
     0
 77
     0
 78
     0
281
     0
 65
     1
110
0.0
120
0.0
130
0.0
111
1.0
121
0.0
131
0.0
112
0.0
122
1.0
132
0.0
 79
     0
146
0.0
  0
ENDTAB
  0
TABLE
  2
LTYPE
  5
E9
330
0
100
AcDbSymbolTable
 70
     9
  0
LTYPE
  5
F7
330
E9
100
AcDbSymbolTableRecord
100
AcDbLinetypeTableRecord
  2
ByBlock
 70
     0
  3

 72
    65
 73
     0
 40
0.0
  0
LTYPE
  5
F8
330
E9
100
AcDbSymbolTableRecord
100
AcDbLinetypeTableRecord
  2
ByLayer
 70
     0
  3

 72
    65
 73
     0
 40
0.0
  0
LTYPE
  5
F9
330
E9
100
AcDbSymbolTableRecord
100
AcDbLinetypeTableRecord
  2
CONTINUOUS
 70
     0
  3
Solid line
 72
    65
 73
     0
 40
0.0
  0
LTYPE
  5
109
330
E9
100
AcDbSymbolTableRecord
100
AcDbLinetypeTableRecord
  2
BORDER
 70
     0
  3
__ __ . __ __ .
 72
    65
 73
     6
 40
7.166266881680426
 49
2.047504823337265
 74
     0
 49
-1.023752411668632
 74
     0
 49
2.047504823337265
 74
     0
 49
-1.023752411668632
 74
     0
 49
0.0
 74
     0
 49
-1.023752411668632
 74
     0
  0
LTYPE
  5
10A
330
E9
100
AcDbSymbolTableRecord
100
AcDbLinetypeTableRecord
  2
CENTER
 70
     0
  3
____ _ ____ _
 72
    65
 73
     4
 40
8.190019293349058
 49
5.118762058343162
 74
     0
 49
-1.023752411668632
 74
     0
 49
1.023752411668632
 74
     0
 49
-1.023752411668632
 74
     0
  0
LTYPE
  5
10B
330
E9
100
AcDbSymbolTableRecord
100
AcDbLinetypeTableRecord
  2
DASHDOT
 70
     0
  3
__ . __ . __ .
 72
    65
 73
     4
 40
4.09500964667453
 49
2.047504823337265
 74
     0
 49
-1.023752411668632
 74
     0
 49
0.0
 74
     0
 49
-1.023752411668632
 74
     0
  0
LTYPE
  5
10C
330
E9
100
AcDbSymbolTableRecord
100
AcDbLinetypeTableRecord
  2
DASHED
 70
     0
  3
__ __ __ __ __
 72
    65
 73
     2
 40
3.071257235005896
 49
2.047504823337265
 74
     0
 49
-1.023752411668632
 74
     0
  0
LTYPE
  5
10D
330
E9
100
AcDbSymbolTableRecord
100
AcDbLinetypeTableRecord
  2
DIVIDE
 70
     0
  3
__ . . __ . . 
 72
    65
 73
     6
 40
5.118762058343162
 49
2.047504823337265
 74
     0
 49
-1.023752411668632
 74
     0
 49
0.0
 74
     0
 49
-1.023752411668632
 74
     0
 49
0.0
 74
     0
 49
-1.023752411668632
 74
     0
  0
LTYPE
  5
10E
330
E9
100
AcDbSymbolTableRecord
100
AcDbLinetypeTableRecord
  2
DOT
 70
     0
  3
..............
 72
    65
 73
     4
 40
2.047504823337265
 49
0.0
 74
     0
 49
-1.023752411668632
 74
     0
 49
0.0
 74
     0
 49
-1.023752411668632
 74
     0
  0
LTYPE
  5
10F
330
E9
100
AcDbSymbolTableRecord
100
AcDbLinetypeTableRecord
  2
HIDDEN
 70
     0
  3
_ _ _ _ _ _ _
 72
    65
 73
     2
 40
1.535628617502949
 49
1.023752411668632
 74
     0
 49
-0.5118762058343163
 74
     0
  0
LTYPE
  5
110
330
E9
100
AcDbSymbolTableRecord
100
AcDbLinetypeTableRecord
  2
PHANTOM
 70
     0
  3
_____ _ _ _____ _ _ 
 72
    65
 73
     6
 40
10.23752411668633
 49
5.118762058343162
 74
     0
 49
-1.023752411668632
 74
     0
 49
1.023752411668632
 74
     0
 49
-1.023752411668632
 74
     0
 49
1.023752411668632
 74
     0
 49
-1.023752411668632
 74
     0
  0
ENDTAB
  0
TABLE
  2
LAYER
  5
E6
330
0
100
AcDbSymbolTable
 70
     2
  0
LAYER
  5
F4
330
E6
100
AcDbSymbolTableRecord
100
AcDbLayerTableRecord
  2
0
 70
     0
 62
     7
  6
CONTINUOUS
370
    -3
390
F3
  0
LAYER
  5
111
330
E6
100
AcDbSymbolTableRecord
100
AcDbLayerTableRecord
  2
1
 70
     0
 62
     7
  6
CONTINUOUS
370
    -3
390
F3
  0
ENDTAB
  0
TABLE
  2
STYLE
  5
E7
330
0
100
AcDbSymbolTable
 70
     4
  0
STYLE
  5
F5
330
E7
100
AcDbSymbolTableRecord
100
AcDbTextStyleTableRecord
  2
STANDARD
 70
     0
 40
0.0
 41
1.0
 50
0.0
 71
     0
 42
3.5
  3
txt
  4

  0
STYLE
  5
112
330
E7
100
AcDbSymbolTableRecord
100
AcDbTextStyleTableRecord
  2
SIMPLEX
 70
     0
 40
0.0
 41
1.0
 50
0.0
 71
     0
 42
3.5
  3
simplex
  4

  0
STYLE
  5
113
330
E7
100
AcDbSymbolTableRecord
100
AcDbTextStyleTableRecord
  2
COMPLEX
 70
     0
 40
0.0
 41
1.0
 50
0.0
 71
     0
 42
3.5
  3
complex
  4

  0
STYLE
  5
114
330
E7
100
AcDbSymbolTableRecord
100
AcDbTextStyleTableRecord
  2
ITALIC
 70
     0
 40
0.0
 41
1.0
 50
0.0
 71
     0
 42
3.5
  3
italic
  4

  0
ENDTAB
  0
TABLE
  2
VIEW
  5
EA
330
0
100
AcDbSymbolTable
 70
     0
  0
ENDTAB
  0
TABLE
  2
UCS
  5
EB
330
0
100
AcDbSymbolTable
 70
     0
  0
ENDTAB
  0
TABLE
  2
APPID
  5
ED
330
0
100
AcDbSymbolTable
 70
     1
  0
APPID
  5
F6
330
ED
100
AcDbSymbolTableRecord
100
AcDbRegAppTableRecord
  2
ACAD
 70
     0
  0
ENDTAB
  0
TABLE
  2
DIMSTYLE
  5
EE
330
0
100
AcDbSymbolTable
 70
     1
100
AcDbDimStyleTable
 71
     0
  0
DIMSTYLE
105
115
330
EE
100
AcDbSymbolTableRecord
100
AcDbDimStyleTableRecord
  2
STANDARD
 70
     0
279
     2
340
F5
  0
ENDTAB
  0
TABLE
  2
BLOCK_RECORD
  5
E5
330
0
100
AcDbSymbolTable
 70
     2
  0
BLOCK_RECORD
  5
104
330
E5
100
AcDbSymbolTableRecord
100
AcDbBlockTableRecord
  2
*Model_Space
340
107
  0
BLOCK_RECORD
  5
100
330
E5
100
AcDbSymbolTableRecord
100
AcDbBlockTableRecord
  2
*Paper_Space
340
103
  0
BLOCK_RECORD
  5
11A
330
E5
100
AcDbSymbolTableRecord
100
AcDbBlockTableRecord
  2
$MODEL_SPACE
340
0
  0
BLOCK_RECORD
  5
11C
330
E5
100
AcDbSymbolTableRecord
100
AcDbBlockTableRecord
  2
$PAPER_SPACE
340
0
  0
ENDTAB
  0
ENDSEC
  0
SECTION
  2
BLOCKS
  0
BLOCK
  5
105
330
104
100
AcDbEntity
  8
0
100
AcDbBlockBegin
  2
*Model_Space
 70
     0
 10
0.0
 20
0.0
 30
0.0
  3
*Model_Space
  1

  0
ENDBLK
  5
106
330
104
100
AcDbEntity
  8
0
100
AcDbBlockEnd
  0
BLOCK
  5
101
330
100
100
AcDbEntity
 67
     1
  8
0
100
AcDbBlockBegin
  2
*Paper_Space
 70
     0
 10
0.0
 20
0.0
 30
0.0
  3
*Paper_Space
  1

  0
ENDBLK
  5
102
330
100
100
AcDbEntity
 67
     1
  8
0
100
AcDbBlockEnd
  0
BLOCK
  5
11B
330
11A
100
AcDbEntity
  8
0
100
AcDbBlockBegin
  2
$MODEL_SPACE
 70
     0
 10
0.0
 20
0.0
 30
0.0
  3
$MODEL_SPACE
  1

  0
ENDBLK
  5
20
330
11A
100
AcDbEntity
  8
0
100
AcDbBlockEnd
  0
BLOCK
  5
11D
330
11C
100
AcDbEntity
  8
0
100
AcDbBlockBegin
  2
$PAPER_SPACE
 70
     0
 10
0.0
 20
0.0
 30
0.0
  3
$PAPER_SPACE
  1

  0
ENDBLK
  5
1C
330
11C
100
AcDbEntity
  8
0
100
AcDbBlockEnd
  0
ENDSEC
  0
SECTION
  2
ENTITIES
  0
LINE
  5
33
330
104
100
AcDbEntity
  8
1
 62
     7
100
AcDbLine
 10
-96.00487669318196
 20
1.019803902718563
 30
0.0
 11
-96.00487669318196
 21
-1.019803902718563
 31
0.0
  0
LINE
  5
34
330
104
100
AcDbEntity
  8
1
 62
     7
100
AcDbLine
 10
-87.84930233231003
 20
-5.568874953737959
 30
0.0
 11
-87.65430233231001
 21
-5.231125046262034
 31
0.0
  0
LINE
  5
35
330
104
100
AcDbEntity
  8
1
 62
     7
100
AcDbLine
 10
-89.69651031096772
 20
-5.77833302491976
 30
0.0
 11
-89.35876040349182
 21
-5.973333024919782
 31
0.0
  0
LINE
  5
36
330
104
100
AcDbEntity
  8
1
 62
     7
100
AcDbLine
 10
-89.90596838214957
 20
-3.931125046262038
 30
0.0
 11
-90.10096838214954
 21
-4.268874953737947
 31
0.0
  0
LINE
  5
37
330
104
100
AcDbEntity
  8
1
 62
     7
100
AcDbLine
 10
-88.05876040349181
 20
-3.721666975080223
 30
0.0
 11
-88.39651031096773
 21
-3.526666975080232
 31
0.0
  0
LINE
  5
38
330
104
100
AcDbEntity
  8
1
 62
     7
100
AcDbLine
 10
-106.5554510540539
 20
-5.23112504626202
 30
0.0
 11
-106.3604510540538
 21
-5.568874953737945
 31
0.0
  0
LINE
  5
39
330
104
100
AcDbEntity
  8
1
 62
     7
100
AcDbLine
 10
-105.8132430753961
 20
-3.526666975080232
 30
0.0
 11
-106.150992982872
 21
-3.721666975080223
 31
0.0
  0
LINE
  5
3A
330
104
100
AcDbEntity
  8
1
 62
     7
100
AcDbLine
 10
-104.1087850042143
 20
-4.268874953737947
 30
0.0
 11
-104.3037850042143
 21
-3.931125046262024
 31
0.0
  0
LINE
  5
3B
330
104
100
AcDbEntity
  8
1
 62
     7
100
AcDbLine
 10
-104.850992982872
 20
-5.973333024919753
 30
0.0
 11
-104.5132430753961
 21
-5.77833302491976
 31
0.0
  0
LINE
  5
3C
330
104
100
AcDbEntity
  8
1
 62
     7
100
AcDbLine
 10
-96.90987669318197
 20
10.8
 30
0.0
 11
-97.29987669318193
 21
10.8
 31
0.0
  0
LINE
  5
3D
330
104
100
AcDbEntity
  8
1
 62
     7
100
AcDbLine
 10
-95.80487669318195
 20
9.304999999999999
 30
0.0
 11
-95.80487669318195
 21
9.695
 31
0.0
  0
LINE
  5
3E
330
104
100
AcDbEntity
  8
1
 62
     7
100
AcDbLine
 10
-97.29987669318193
 20
8.199999999999997
 30
0.0
 11
-96.90987669318197
 21
8.199999999999997
 31
0.0
  0
LINE
  5
3F
330
104
100
AcDbEntity
  8
1
 62
     7
100
AcDbLine
 10
-98.40487669318193
 20
9.695
 30
0.0
 11
-98.40487669318193
 21
9.304999999999999
 31
0.0
  0
LINE
  5
40
330
104
100
AcDbEntity
  8
1
 62
     7
100
AcDbLine
 10
-79.60487669318195
 20
2.750000000000036
 30
0.0
 11
-77.80487669318198
 21
2.750000000000043
 31
0.0
  0
LINE
  5
41
330
104
100
AcDbEntity
  8
1
  6
DASHDOT
 62
     3
100
AcDbLine
 10
-94.38941353502855
 20
0.0
 30
0.0
 11
-99.82033985133535
 21
0.0
 31
0.0
  0
LINE
  5
42
330
104
100
AcDbEntity
  8
1
  6
DASHDOT
 62
     3
100
AcDbLine
 10
-97.10487669318196
 20
-2.715463158153398
 30
0.0
 11
-97.10487669318196
 21
2.715463158153398
 31
0.0
  0
LINE
  5
43
330
104
100
AcDbEntity
  8
1
 62
     7
100
AcDbLine
 10
-81.10487669318194
 20
17.50000000000002
 30
0.0
 11
-113.1048766931818
 21
17.50000000000002
 31
0.0
  0
LINE
  5
44
330
104
100
AcDbEntity
  8
1
 62
     7
100
AcDbLine
 10
-81.10487669318194
 20
17.50000000000002
 30
0.0
 11
-79.60487669318195
 21
16.00000000000004
 31
0.0
  0
LINE
  5
45
330
104
100
AcDbEntity
  8
1
 62
     7
100
AcDbLine
 10
-81.10487669318194
 20
-17.5
 30
0.0
 11
-79.60487669318195
 21
-16.0
 31
0.0
  0
LINE
  5
46
330
104
100
AcDbEntity
  8
1
 62
     7
100
AcDbLine
 10
-114.604876693182
 20
-16.0
 30
0.0
 11
-113.1048766931818
 21
-17.5
 31
0.0
  0
LINE
  5
47
330
104
100
AcDbEntity
  8
1
 62
     7
100
AcDbLine
 10
-113.1048766931818
 20
17.50000000000002
 30
0.0
 11
-114.604876693182
 21
16.00000000000004
 31
0.0
  0
LINE
  5
48
330
104
100
AcDbEntity
  8
1
  6
DASHDOT
 62
     3
100
AcDbLine
 10
-113.1048766931818
 20
-16.00000000000004
 30
0.0
 11
-109.1048766931818
 21
-12.00000000000002
 31
0.0
  0
LINE
  5
49
330
104
100
AcDbEntity
  8
1
  6
DASHDOT
 62
     3
100
AcDbLine
 10
-81.10487669318194
 20
-16.00000000000004
 30
0.0
 11
-85.10487669318195
 21
-12.00000000000003
 31
0.0
  0
LINE
  5
4A
330
104
100
AcDbEntity
  8
1
  6
DASHDOT
 62
     3
100
AcDbLine
 10
-81.10487669318194
 20
15.99999999999994
 30
0.0
 11
-85.10487669318195
 21
11.99999999999993
 31
0.0
  0
LINE
  5
4B
330
104
100
AcDbEntity
  8
1
  6
DASHDOT
 62
     3
100
AcDbLine
 10
-113.1048766931818
 20
15.99999999999994
 30
0.0
 11
-109.1048766931818
 21
11.99999999999993
 31
0.0
  0
LINE
  5
4C
330
104
100
AcDbEntity
  8
1
 62
     7
100
AcDbLine
 10
-79.60487669318195
 20
16.00000000000004
 30
0.0
 11
-79.60487669318195
 21
-16.0
 31
0.0
  0
LINE
  5
4D
330
104
100
AcDbEntity
  8
1
 62
     7
100
AcDbLine
 10
-81.10487669318194
 20
-17.5
 30
0.0
 11
-113.1048766931818
 21
-17.5
 31
0.0
  0
LINE
  5
4E
330
104
100
AcDbEntity
  8
1
 62
     7
100
AcDbLine
 10
-114.604876693182
 20
-16.0
 30
0.0
 11
-114.604876693182
 21
16.00000000000004
 31
0.0
  0
LINE
  5
4F
330
104
100
AcDbEntity
  8
1
 62
     7
100
AcDbLine
 10
-77.80487669318198
 20
2.750000000000043
 30
0.0
 11
-77.80487669318188
 21
-2.750000000000071
 31
0.0
  0
LINE
  5
50
330
104
100
AcDbEntity
  8
1
 62
     7
100
AcDbLine
 10
-77.80487669318198
 20
2.750000000000043
 30
0.0
 11
-77.60487669318195
 21
2.403589838486183
 31
0.0
  0
LINE
  5
51
330
104
100
AcDbEntity
  8
1
 62
     7
100
AcDbLine
 10
-77.60487669318195
 20
2.403589838486183
 30
0.0
 11
-77.60487669318195
 21
-2.403589838486198
 31
0.0
  0
LINE
  5
52
330
104
100
AcDbEntity
  8
1
 62
     7
100
AcDbLine
 10
-77.60487669318195
 20
-2.403589838486198
 30
0.0
 11
-77.80487669318188
 21
-2.750000000000071
 31
0.0
  0
LINE
  5
53
330
104
100
AcDbEntity
  8
1
 62
     7
100
AcDbLine
 10
-77.80487669318188
 20
-2.750000000000071
 30
0.0
 11
-79.60487669318195
 21
-2.750000000000023
 31
0.0
  0
LINE
  5
54
330
104
100
AcDbEntity
  8
1
  6
DASHDOT
 62
     3
100
AcDbLine
 10
-25.11179400242975
 20
0.0
 30
0.0
 11
-23.11179400242975
 21
0.0
 31
0.0
  0
LINE
  5
55
330
104
100
AcDbEntity
  8
1
  6
DASHDOT
 62
     3
100
AcDbLine
 10
-55.11179400242975
 20
0.0
 30
0.0
 11
-53.11179400242975
 21
0.0
 31
0.0
  0
LINE
  5
56
330
104
100
AcDbEntity
  8
1
 62
     7
100
AcDbLine
 10
-34.9117940024297
 20
0.0
 30
0.0
 11
-32.9117940024297
 21
0.0
 31
0.0
  0
LINE
  5
57
330
104
100
AcDbEntity
  8
1
 62
     7
100
AcDbLine
 10
-32.9117940024297
 20
-2.777777777777798
 30
0.0
 11
-34.9117940024297
 21
-2.777777777777798
 31
0.0
  0
LINE
  5
58
330
104
100
AcDbEntity
  8
1
 62
     7
100
AcDbLine
 10
-34.9117940024297
 20
5.0
 30
0.0
 11
-28.9117940024297
 21
5.0
 31
0.0
  0
LINE
  5
59
330
104
100
AcDbEntity
  8
1
 62
     7
100
AcDbLine
 10
-28.9117940024297
 20
5.0
 30
0.0
 11
-28.9117940024297
 21
-16.0
 31
0.0
  0
LINE
  5
5A
330
104
100
AcDbEntity
  8
1
 62
     7
100
AcDbLine
 10
-39.71179400242965
 20
-14.0
 30
0.0
 11
-36.51179400242972
 21
-14.0
 31
0.0
  0
LINE
  5
5B
330
104
100
AcDbEntity
  8
1
 62
     7
100
AcDbLine
 10
-36.51179400242972
 20
-16.0
 30
0.0
 11
-36.51179400242972
 21
-2.236626924634492
 31
0.0
  0
LINE
  5
5C
330
104
100
AcDbEntity
  8
1
 62
     7
100
AcDbLine
 10
-39.71179400242965
 20
-2.236626924634492
 30
0.0
 11
-39.71179400242965
 21
-16.0
 31
0.0
  0
LINE
  5
5D
330
104
100
AcDbEntity
  8
1
 62
     7
100
AcDbLine
 10
-36.86179400242976
 20
0.7216878364870072
 30
0.0
 11
-38.11179400242976
 21
1.443375672974099
 31
0.0
  0
LINE
  5
5E
330
104
100
AcDbEntity
  8
1
 62
     7
100
AcDbLine
 10
-36.86179400242976
 20
-0.7216878364870072
 30
0.0
 11
-36.86179400242976
 21
0.7216878364870072
 31
0.0
  0
LINE
  5
5F
330
104
100
AcDbEntity
  8
1
 62
     7
100
AcDbLine
 10
-38.11179400242976
 20
-1.443375672974099
 30
0.0
 11
-36.86179400242976
 21
-0.7216878364870072
 31
0.0
  0
LINE
  5
60
330
104
100
AcDbEntity
  8
1
 62
     7
100
AcDbLine
 10
-39.36179400242976
 20
-0.7216878364870072
 30
0.0
 11
-38.11179400242976
 21
-1.443375672974099
 31
0.0
  0
LINE
  5
61
330
104
100
AcDbEntity
  8
1
 62
     7
100
AcDbLine
 10
-39.36179400242976
 20
0.7216878364870072
 30
0.0
 11
-39.36179400242976
 21
-0.7216878364870072
 31
0.0
  0
LINE
  5
62
330
104
100
AcDbEntity
  8
1
 62
     7
100
AcDbLine
 10
-38.11179400242976
 20
1.443375672974099
 30
0.0
 11
-39.36179400242976
 21
0.7216878364870072
 31
0.0
  0
LINE
  5
63
330
104
100
AcDbEntity
  8
1
 62
     7
100
AcDbLine
 10
-43.11179400242975
 20
-1.5
 30
0.0
 11
-53.11179400242975
 21
-1.5
 31
0.0
  0
LINE
  5
64
330
104
100
AcDbEntity
  8
1
 62
     7
100
AcDbLine
 10
-43.11179400242975
 20
17.50000000000002
 30
0.0
 11
-43.11179400242975
 21
-17.5
 31
0.0
  0
LINE
  5
65
330
104
100
AcDbEntity
  8
1
 62
     7
100
AcDbLine
 10
-28.11179400242976
 20
-4.984999999999985
 30
0.0
 11
-28.31179400242968
 21
-4.984999999999985
 31
0.0
  0
LINE
  5
66
330
104
100
AcDbEntity
  8
1
 62
     7
100
AcDbLine
 10
-28.31179400242968
 20
4.985000000000012
 30
0.0
 11
-28.11179400242976
 21
4.985000000000012
 31
0.0
  0
LINE
  5
67
330
104
100
AcDbEntity
  8
1
 62
     7
100
AcDbLine
 10
-28.11179400242976
 20
12.50000000000003
 30
0.0
 11
-28.11179400242976
 21
-12.5
 31
0.0
  0
LINE
  5
68
330
104
100
AcDbEntity
  8
1
 62
     7
100
AcDbLine
 10
-28.31179400242968
 20
-16.0
 30
0.0
 11
-41.11179400242975
 21
-16.0
 31
0.0
  0
LINE
  5
69
330
104
100
AcDbEntity
  8
1
 62
     7
100
AcDbLine
 10
-28.31179400242968
 20
16.00000000000004
 30
0.0
 11
-41.11179400242975
 21
16.00000000000004
 31
0.0
  0
LINE
  5
6A
330
104
100
AcDbEntity
  8
1
 62
     7
100
AcDbLine
 10
-28.31179400242968
 20
-16.0
 30
0.0
 11
-28.31179400242968
 21
16.00000000000004
 31
0.0
  0
LINE
  5
6B
330
104
100
AcDbEntity
  8
1
  6
DASHDOT
 62
     3
100
AcDbLine
 10
-38.11179400242976
 20
3.532386706094313
 30
0.0
 11
-38.11179400242976
 21
-17.50473595537369
 31
0.0
  0
LINE
  5
6C
330
104
100
AcDbEntity
  8
1
 62
     7
100
AcDbLine
 10
-53.11179400242975
 20
-1.5
 30
0.0
 11
-53.11179400242975
 21
1.5
 31
0.0
  0
LINE
  5
6D
330
104
100
AcDbEntity
  8
1
 62
     7
100
AcDbLine
 10
-45.11179400242975
 20
-1.019803902718593
 30
0.0
 11
-53.11179400242975
 21
-1.019803902718593
 31
0.0
  0
LINE
  5
6E
330
104
100
AcDbEntity
  8
1
 62
     7
100
AcDbLine
 10
-45.11179400242975
 20
1.019803902718507
 30
0.0
 11
-45.11179400242975
 21
-1.019803902718593
 31
0.0
  0
LINE
  5
6F
330
104
100
AcDbEntity
  8
1
 62
     7
100
AcDbLine
 10
-53.11179400242975
 20
1.019803902718507
 30
0.0
 11
-45.11179400242975
 21
1.019803902718507
 31
0.0
  0
LINE
  5
70
330
104
100
AcDbEntity
  8
1
 62
     3
100
AcDbLine
 10
-53.11179400242975
 20
1.019803902718507
 30
0.0
 11
-45.11179400242975
 21
-1.019803902718593
 31
0.0
  0
LINE
  5
71
330
104
100
AcDbEntity
  8
1
 62
     3
100
AcDbLine
 10
-45.11179400242975
 20
1.019803902718507
 30
0.0
 11
-53.11179400242975
 21
-1.019803902718593
 31
0.0
  0
LINE
  5
72
330
104
100
AcDbEntity
  8
1
 62
     7
100
AcDbLine
 10
-53.11179400242975
 20
1.5
 30
0.0
 11
-43.11179400242975
 21
1.5
 31
0.0
  0
LINE
  5
73
330
104
100
AcDbEntity
  8
1
 62
     7
100
AcDbLine
 10
-26.61179400242975
 20
-12.5
 30
0.0
 11
-28.11179400242976
 21
-12.5
 31
0.0
  0
LINE
  5
74
330
104
100
AcDbEntity
  8
1
 62
     7
100
AcDbLine
 10
-28.11179400242976
 20
12.50000000000003
 30
0.0
 11
-26.61179400242975
 21
12.50000000000003
 31
0.0
  0
LINE
  5
75
330
104
100
AcDbEntity
  8
1
 62
     7
100
AcDbLine
 10
-25.11179400242975
 20
-7.0
 30
0.0
 11
-26.61179400242975
 21
-7.0
 31
0.0
  0
LINE
  5
76
330
104
100
AcDbEntity
  8
1
 62
     7
100
AcDbLine
 10
-25.11179400242975
 20
7.0
 30
0.0
 11
-25.11179400242975
 21
-7.0
 31
0.0
  0
LINE
  5
77
330
104
100
AcDbEntity
  8
1
 62
     7
100
AcDbLine
 10
-26.61179400242975
 20
7.0
 30
0.0
 11
-25.11179400242975
 21
7.0
 31
0.0
  0
LINE
  5
78
330
104
100
AcDbEntity
  8
1
 62
     7
100
AcDbLine
 10
-26.61179400242975
 20
-12.5
 30
0.0
 11
-26.61179400242975
 21
12.50000000000003
 31
0.0
  0
LINE
  5
79
330
104
100
AcDbEntity
  8
1
 62
     7
100
AcDbLine
 10
-41.11179400242975
 20
-17.5
 30
0.0
 11
-41.11179400242975
 21
17.50000000000002
 31
0.0
  0
LINE
  5
7A
330
104
100
AcDbEntity
  8
1
 62
     7
100
AcDbLine
 10
-43.11179400242975
 20
-17.5
 30
0.0
 11
-41.11179400242975
 21
-17.5
 31
0.0
  0
LINE
  5
7B
330
104
100
AcDbEntity
  8
1
 62
     7
100
AcDbLine
 10
-41.11179400242975
 20
17.50000000000002
 30
0.0
 11
-43.11179400242975
 21
17.50000000000002
 31
0.0
  0
LINE
  5
7C
330
104
100
AcDbEntity
  8
1
 62
     7
100
AcDbLine
 10
-34.9117940024297
 20
-5.472322293210709
 30
0.0
 11
-32.9117940024297
 21
-5.472322293210709
 31
0.0
  0
LINE
  5
7D
330
104
100
AcDbEntity
  8
1
 62
     7
100
AcDbLine
 10
-34.9117940024297
 20
-8.0
 30
0.0
 11
-32.9117940024297
 21
-8.0
 31
0.0
  0
LINE
  5
7E
330
104
100
AcDbEntity
  8
1
 62
     7
100
AcDbLine
 10
-34.9117940024297
 20
-10.28460175498459
 30
0.0
 11
-32.9117940024297
 21
-10.28460175498459
 31
0.0
  0
LINE
  5
7F
330
104
100
AcDbEntity
  8
1
 62
     7
100
AcDbLine
 10
-34.9117940024297
 20
-12.2567110899036
 30
0.0
 11
-32.9117940024297
 21
-12.2567110899036
 31
0.0
  0
LINE
  5
80
330
104
100
AcDbEntity
  8
1
 62
     7
100
AcDbLine
 10
-34.9117940024297
 20
-13.856406460551
 30
0.0
 11
-32.9117940024297
 21
-13.856406460551
 31
0.0
  0
LINE
  5
81
330
104
100
AcDbEntity
  8
1
 62
     7
100
AcDbLine
 10
-34.9117940024297
 20
-15.0350819325745
 30
0.0
 11
-32.9117940024297
 21
-15.0350819325745
 31
0.0
  0
LINE
  5
82
330
104
100
AcDbEntity
  8
1
 62
     7
100
AcDbLine
 10
-34.9117940024297
 20
-15.75692404819529
 30
0.0
 11
-32.9117940024297
 21
-15.75692404819529
 31
0.0
  0
LINE
  5
83
330
104
100
AcDbEntity
  8
1
 62
     7
100
AcDbLine
 10
-34.9117940024297
 20
-16.0
 30
0.0
 11
-34.9117940024297
 21
5.0
 31
0.0
  0
LINE
  5
84
330
104
100
AcDbEntity
  8
1
  6
DASHDOT
 62
     3
100
AcDbLine
 10
24.61058646497145
 20
0.0
 30
0.0
 11
19.17966014866465
 21
0.0
 31
0.0
  0
LINE
  5
85
330
104
100
AcDbEntity
  8
1
  6
DASHDOT
 62
     3
100
AcDbLine
 10
21.89512330681805
 20
2.715463158153398
 30
0.0
 11
21.89512330681805
 21
-2.715463158153398
 31
0.0
  0
LINE
  5
86
330
104
100
AcDbEntity
  8
1
 62
     7
100
AcDbLine
 10
37.89512330681805
 20
17.50000000000002
 30
0.0
 11
5.895123306818049
 21
17.50000000000002
 31
0.0
  0
LINE
  5
87
330
104
100
AcDbEntity
  8
1
 62
     7
100
AcDbLine
 10
4.395123306818049
 20
16.00000000000004
 30
0.0
 11
5.895123306818049
 21
17.50000000000002
 31
0.0
  0
LINE
  5
88
330
104
100
AcDbEntity
  8
1
 62
     7
100
AcDbLine
 10
4.395123306818049
 20
-16.0
 30
0.0
 11
5.895123306818049
 21
-17.5
 31
0.0
  0
LINE
  5
89
330
104
100
AcDbEntity
  8
1
 62
     7
100
AcDbLine
 10
37.89512330681805
 20
-17.5
 30
0.0
 11
39.39512330681805
 21
-16.0
 31
0.0
  0
LINE
  5
8A
330
104
100
AcDbEntity
  8
1
 62
     7
100
AcDbLine
 10
39.39512330681805
 20
16.00000000000004
 30
0.0
 11
37.89512330681805
 21
17.50000000000002
 31
0.0
  0
LINE
  5
8B
330
104
100
AcDbEntity
  8
1
  6
DASHDOT
 62
     3
100
AcDbLine
 10
33.89512330681805
 20
-12.00000000000003
 30
0.0
 11
37.89512330681805
 21
-16.00000000000004
 31
0.0
  0
LINE
  5
8C
330
104
100
AcDbEntity
  8
1
  6
DASHDOT
 62
     3
100
AcDbLine
 10
9.895123306818051
 20
-12.00000000000002
 30
0.0
 11
5.895123306818049
 21
-16.00000000000002
 31
0.0
  0
LINE
  5
8D
330
104
100
AcDbEntity
  8
1
  6
DASHDOT
 62
     3
100
AcDbLine
 10
9.895123306818051
 20
11.99999999999993
 30
0.0
 11
5.895123306818049
 21
15.99999999999994
 31
0.0
  0
LINE
  5
8E
330
104
100
AcDbEntity
  8
1
  6
DASHDOT
 62
     3
100
AcDbLine
 10
33.89512330681805
 20
12.00000000000003
 30
0.0
 11
37.89512330681805
 21
16.00000000000004
 31
0.0
  0
LINE
  5
8F
330
104
100
AcDbEntity
  8
1
 62
     7
100
AcDbLine
 10
4.395123306818049
 20
-16.0
 30
0.0
 11
4.395123306818049
 21
-2.750000000000028
 31
0.0
  0
LINE
  5
90
330
104
100
AcDbEntity
  8
1
 62
     7
100
AcDbLine
 10
37.89512330681805
 20
-17.5
 30
0.0
 11
5.895123306818049
 21
-17.5
 31
0.0
  0
LINE
  5
91
330
104
100
AcDbEntity
  8
1
 62
     7
100
AcDbLine
 10
39.39512330681805
 20
16.00000000000004
 30
0.0
 11
39.39512330681805
 21
-16.0
 31
0.0
  0
LINE
  5
92
330
104
100
AcDbEntity
  8
1
 62
     7
100
AcDbLine
 10
20.89512330681805
 20
-12.4599357943771
 30
0.0
 11
20.89512330681805
 21
-15.9687194226713
 31
0.0
  0
LINE
  5
93
330
104
100
AcDbEntity
  8
1
 62
     7
100
AcDbLine
 10
22.89512330681805
 20
12.45993579437713
 30
0.0
 11
22.89512330681805
 21
15.96871942267124
 31
0.0
  0
LINE
  5
94
330
104
100
AcDbEntity
  8
1
 62
     7
100
AcDbLine
 10
2.59512330681798
 20
-2.750000000000071
 30
0.0
 11
2.595123306818102
 21
2.750000000000043
 31
0.0
  0
LINE
  5
95
330
104
100
AcDbEntity
  8
1
 62
     7
100
AcDbLine
 10
5.895123306818049
 20
2.750000000000028
 30
0.0
 11
5.895123306818049
 21
-2.749999999999971
 31
0.0
  0
LINE
  5
96
330
104
100
AcDbEntity
  8
1
 62
     7
100
AcDbLine
 10
2.595123306818102
 20
2.750000000000043
 30
0.0
 11
5.895123306818049
 21
2.750000000000028
 31
0.0
  0
LINE
  5
97
330
104
100
AcDbEntity
  8
1
 62
     7
100
AcDbLine
 10
2.395123306818048
 20
2.403589838486183
 30
0.0
 11
2.595123306818102
 21
2.750000000000043
 31
0.0
  0
LINE
  5
98
330
104
100
AcDbEntity
  8
1
 62
     7
100
AcDbLine
 10
2.395123306818048
 20
-2.403589838486198
 30
0.0
 11
2.395123306818048
 21
2.403589838486183
 31
0.0
  0
LINE
  5
99
330
104
100
AcDbEntity
  8
1
 62
     7
100
AcDbLine
 10
2.59512330681798
 20
-2.750000000000071
 30
0.0
 11
2.395123306818048
 21
-2.403589838486198
 31
0.0
  0
LINE
  5
9A
330
104
100
AcDbEntity
  8
1
 62
     7
100
AcDbLine
 10
5.895123306818049
 20
-2.749999999999971
 30
0.0
 11
2.59512330681798
 21
-2.750000000000071
 31
0.0
  0
LINE
  5
9B
330
104
100
AcDbEntity
  8
1
 62
     7
100
AcDbLine
 10
22.89512330681805
 20
-15.96871942267128
 30
0.0
 11
22.89512330681805
 21
-12.45993579437709
 31
0.0
  0
LINE
  5
9C
330
104
100
AcDbEntity
  8
1
 62
     7
100
AcDbLine
 10
20.89512330681805
 20
15.96871942267133
 30
0.0
 11
20.89512330681805
 21
12.45993579437713
 31
0.0
  0
LINE
  5
9D
330
104
100
AcDbEntity
  8
1
 62
     7
100
AcDbLine
 10
4.395123306818049
 20
2.750000000000028
 30
0.0
 11
4.395123306818049
 21
16.00000000000004
 31
0.0
  0
LINE
  5
9E
330
104
100
AcDbEntity
  8
1
 62
     7
100
AcDbLine
 10
-98.30487669318195
 20
-2.392481155659929
 30
0.0
 11
-98.30487669318195
 21
-1.847295320191113
 31
0.0
  0
LINE
  5
9F
330
104
100
AcDbEntity
  8
1
 62
     7
100
AcDbLine
 10
-97.85487669318195
 20
-2.842481155659927
 30
0.0
 11
-97.25487669318196
 21
-2.842481155659927
 31
0.0
  0
LINE
  5
A0
330
104
100
AcDbEntity
  8
1
 62
     7
100
AcDbLine
 10
-97.25487669318196
 20
-2.442481155659928
 30
0.0
 11
-97.25487669318196
 21
-2.842481155659927
 31
0.0
  0
LINE
  5
A1
330
104
100
AcDbEntity
  8
1
 62
     7
100
AcDbLine
 10
-97.62987669318196
 20
-2.44248115565993
 30
0.0
 11
-97.25487669318196
 21
-2.442481155659928
 31
0.0
  0
LINE
  5
A2
330
104
100
AcDbEntity
  8
1
 62
     7
100
AcDbLine
 10
-97.25487669318196
 20
-1.892481155659929
 30
0.0
 11
-97.62987669318196
 21
-1.892481155659929
 31
0.0
  0
LINE
  5
A3
330
104
100
AcDbEntity
  8
1
 62
     7
100
AcDbLine
 10
-97.25487669318196
 20
-1.49248115565993
 30
0.0
 11
-97.25487669318196
 21
-1.892481155659929
 31
0.0
  0
LINE
  5
A4
330
104
100
AcDbEntity
  8
1
 62
     7
100
AcDbLine
 10
-96.95487669318197
 20
-1.892481155659929
 30
0.0
 11
-96.95487669318197
 21
-1.49248115565993
 31
0.0
  0
LINE
  5
A5
330
104
100
AcDbEntity
  8
1
 62
     7
100
AcDbLine
 10
-96.57987669318194
 20
-1.892481155659929
 30
0.0
 11
-96.95487669318197
 21
-1.892481155659929
 31
0.0
  0
LINE
  5
A6
330
104
100
AcDbEntity
  8
1
 62
     7
100
AcDbLine
 10
-96.95487669318197
 20
-2.442481155659928
 30
0.0
 11
-96.57987669318194
 21
-2.44248115565993
 31
0.0
  0
LINE
  5
A7
330
104
100
AcDbEntity
  8
1
 62
     7
100
AcDbLine
 10
-96.95487669318197
 20
-2.842481155659927
 30
0.0
 11
-96.95487669318197
 21
-2.442481155659928
 31
0.0
  0
LINE
  5
A8
330
104
100
AcDbEntity
  8
1
 62
     7
100
AcDbLine
 10
-96.95487669318197
 20
-2.842481155659927
 30
0.0
 11
-96.35487669318195
 21
-2.842481155659927
 31
0.0
  0
LINE
  5
A9
330
104
100
AcDbEntity
  8
1
 62
     7
100
AcDbLine
 10
-95.90487669318195
 20
-1.847295320191113
 30
0.0
 11
-95.90487669318195
 21
-2.392481155659929
 31
0.0
  0
ARC
  5
AA
330
104
100
AcDbEntity
  8
1
 62
     7
100
AcDbCircle
 10
-99.00487669318195
 20
-1.847295320191113
 30
0.0
 40
0.6999999999999888
100
AcDbArc
 50
0.0
 51
44.19420372292977
  0
ARC
  5
AB
330
104
100
AcDbEntity
  8
1
 62
     7
100
AcDbCircle
 10
-97.85487669318195
 20
-2.392481155659929
 30
0.0
 40
0.4500000000000028
100
AcDbArc
 50
180.0
 51
270.0
  0
ARC
  5
AC
330
104
100
AcDbEntity
  8
1
 62
     7
100
AcDbCircle
 10
-96.35487669318195
 20
-2.392481155659929
 30
0.0
 40
0.4500000000000002
100
AcDbArc
 50
270.0
 51
0.0
  0
ARC
  5
AD
330
104
100
AcDbEntity
  8
1
 62
     7
100
AcDbCircle
 10
-95.20487669318196
 20
-1.847295320191113
 30
0.0
 40
0.7000000000000015
100
AcDbArc
 50
135.8057962770718
 51
180.0
  0
ARC
  5
AE
330
104
100
AcDbEntity
  8
1
 62
     7
100
AcDbCircle
 10
-88.40180233230999
 20
-6.525833024919761
 30
0.0
 40
1.104999999999987
100
AcDbArc
 50
60.00000000000081
 51
150.0000000000008
  0
ARC
  5
AF
330
104
100
AcDbEntity
  8
1
 62
     7
100
AcDbCircle
 10
-90.65346838214956
 20
-5.225833024919766
 30
0.0
 40
1.105000000000007
100
AcDbArc
 50
330.0000000000006
 51
60.00000000000054
  0
ARC
  5
B0
330
104
100
AcDbEntity
  8
1
 62
     7
100
AcDbCircle
 10
-89.35346838214956
 20
-2.974166975080235
 30
0.0
 40
1.104999999999995
100
AcDbArc
 50
240.0000000000002
 51
330.0000000000006
  0
ARC
  5
B1
330
104
100
AcDbEntity
  8
1
 62
     7
100
AcDbCircle
 10
-87.10180233231003
 20
-4.274166975080247
 30
0.0
 40
1.105000000000009
100
AcDbArc
 50
149.9999999999988
 51
239.9999999999998
  0
ARC
  5
B2
330
104
100
AcDbEntity
  8
1
 62
     7
100
AcDbCircle
 10
-107.1079510540539
 20
-4.27416697508022
 30
0.0
 40
1.104999999999995
100
AcDbArc
 50
299.9999999999997
 51
29.99999999999987
  0
ARC
  5
B3
330
104
100
AcDbEntity
  8
1
 62
     7
100
AcDbCircle
 10
-104.8562850042143
 20
-2.974166975080223
 30
0.0
 40
1.105000000000001
100
AcDbArc
 50
210.0000000000004
 51
299.9999999999997
  0
ARC
  5
B4
330
104
100
AcDbEntity
  8
1
 62
     7
100
AcDbCircle
 10
-103.5562850042142
 20
-5.22583302491975
 30
0.0
 40
1.104999999999995
100
AcDbArc
 50
119.9999999999997
 51
210.0000000000004
  0
ARC
  5
B5
330
104
100
AcDbEntity
  8
1
 62
     7
100
AcDbCircle
 10
-105.8079510540538
 20
-6.525833024919745
 30
0.0
 40
1.104999999999995
100
AcDbArc
 50
29.9999999999998
 51
119.9999999999997
  0
ARC
  5
B6
330
104
100
AcDbEntity
  8
1
 62
     7
100
AcDbCircle
 10
-95.80487669318195
 20
10.8
 30
0.0
 40
1.105000000000004
100
AcDbArc
 50
180.0
 51
270.0
  0
ARC
  5
B7
330
104
100
AcDbEntity
  8
1
 62
     7
100
AcDbCircle
 10
-95.80487669318195
 20
8.199999999999997
 30
0.0
 40
1.104999999999999
100
AcDbArc
 50
90.0
 51
180.0
  0
ARC
  5
B8
330
104
100
AcDbEntity
  8
1
 62
     7
100
AcDbCircle
 10
-98.40487669318193
 20
8.199999999999997
 30
0.0
 40
1.105000000000004
100
AcDbArc
 50
0.0
 51
90.0
  0
ARC
  5
B9
330
104
100
AcDbEntity
  8
1
 62
     7
100
AcDbCircle
 10
-98.40487669318193
 20
10.8
 30
0.0
 40
1.104999999999999
100
AcDbArc
 50
270.0
 51
0.0
  0
ARC
  5
BA
330
104
100
AcDbEntity
  8
1
  6
DASHDOT
 62
     3
100
AcDbCircle
 10
-97.10487669318196
 20
0.0
 30
0.0
 40
19.99999999999992
100
AcDbArc
 50
126.8698976458436
 51
143.1301023541559
  0
ARC
  5
BB
330
104
100
AcDbEntity
  8
1
  6
DASHDOT
 62
     3
100
AcDbCircle
 10
-97.10487669318196
 20
0.0
 30
0.0
 40
19.9999999999998
100
AcDbArc
 50
216.8698976458445
 51
233.1301023541568
  0
ARC
  5
BC
330
104
100
AcDbEntity
  8
1
  6
DASHDOT
 62
     3
100
AcDbCircle
 10
-97.10487669318196
 20
0.0
 30
0.0
 40
19.99999999999981
100
AcDbArc
 50
306.869897645843
 51
323.1301023541556
  0
ARC
  5
BD
330
104
100
AcDbEntity
  8
1
  6
DASHDOT
 62
     3
100
AcDbCircle
 10
-97.10487669318196
 20
0.0
 30
0.0
 40
19.99999999999984
100
AcDbArc
 50
36.8698976458434
 51
53.13010235415569
  0
ARC
  5
BE
330
104
100
AcDbEntity
  8
1
  6
DASHDOT
 62
     3
100
AcDbCircle
 10
21.89512330681805
 20
0.0
 30
0.0
 40
19.99999999999984
100
AcDbArc
 50
36.8698976458434
 51
53.13010235415569
  0
ARC
  5
BF
330
104
100
AcDbEntity
  8
1
  6
DASHDOT
 62
     3
100
AcDbCircle
 10
21.89512330681805
 20
0.0
 30
0.0
 40
19.99999999999981
100
AcDbArc
 50
306.869897645843
 51
323.1301023541556
  0
ARC
  5
C0
330
104
100
AcDbEntity
  8
1
  6
DASHDOT
 62
     3
100
AcDbCircle
 10
21.89512330681805
 20
0.0
 30
0.0
 40
20.0
100
AcDbArc
 50
216.8698976458436
 51
233.1301023541556
  0
ARC
  5
C1
330
104
100
AcDbEntity
  8
1
  6
DASHDOT
 62
     3
100
AcDbCircle
 10
21.89512330681805
 20
0.0
 30
0.0
 40
19.99999999999996
100
AcDbArc
 50
126.8698976458436
 51
143.1301023541559
  0
ARC
  5
C2
330
104
100
AcDbEntity
  8
1
 62
     7
100
AcDbCircle
 10
-97.10487669318196
 20
0.0
 30
0.0
 40
1.949999999999979
100
AcDbArc
 50
315.8057962770708
 51
224.1942037229279
  0
ARC
  5
C3
330
104
100
AcDbEntity
  8
1
 62
     7
100
AcDbCircle
 10
-97.62987669318196
 20
-2.167481155659928
 30
0.0
 40
0.2749999999999999
100
AcDbArc
 50
90.0
 51
270.0
  0
ARC
  5
C4
330
104
100
AcDbEntity
  8
1
 62
     7
100
AcDbCircle
 10
-96.57987669318194
 20
-2.167481155659928
 30
0.0
 40
0.2750000000000012
100
AcDbArc
 50
270.0
 51
90.0
  0
CIRCLE
  5
C5
330
104
100
AcDbEntity
  8
1
 62
     7
100
AcDbCircle
 10
-88.8776353572298
 20
-4.749999999999985
 30
0.0
 40
2.599999999999992
  0
CIRCLE
  5
C6
330
104
100
AcDbEntity
  8
1
 62
     7
100
AcDbCircle
 10
-88.8776353572298
 20
-4.749999999999985
 30
0.0
 40
2.900000000000006
  0
CIRCLE
  5
C7
330
104
100
AcDbEntity
  8
1
 62
     7
100
AcDbCircle
 10
-105.3321180291341
 20
-4.75
 30
0.0
 40
2.599999999999992
  0
CIRCLE
  5
C8
330
104
100
AcDbEntity
  8
1
 62
     7
100
AcDbCircle
 10
-105.3321180291341
 20
-4.75
 30
0.0
 40
2.899999999999991
  0
CIRCLE
  5
C9
330
104
100
AcDbEntity
  8
1
 62
     7
100
AcDbCircle
 10
-97.10487669318196
 20
9.5
 30
0.0
 40
2.599999999999992
  0
CIRCLE
  5
CA
330
104
100
AcDbEntity
  8
1
 62
     7
100
AcDbCircle
 10
-97.10487669318196
 20
9.5
 30
0.0
 40
2.900000000000047
  0
CIRCLE
  5
CB
330
104
100
AcDbEntity
  8
1
 62
     7
100
AcDbCircle
 10
-97.10487669318196
 20
0.0
 30
0.0
 40
1.5
  0
CIRCLE
  5
CC
330
104
100
AcDbEntity
  8
1
 62
     7
100
AcDbCircle
 10
-97.10487669318196
 20
0.0
 30
0.0
 40
6.000000000000056
  0
CIRCLE
  5
CD
330
104
100
AcDbEntity
  8
1
 62
     7
100
AcDbCircle
 10
-111.247012316913
 20
-14.14213562373099
 30
0.0
 40
1.700000000000003
  0
CIRCLE
  5
CE
330
104
100
AcDbEntity
  8
1
 62
     7
100
AcDbCircle
 10
-82.96274106945087
 20
-14.14213562373099
 30
0.0
 40
1.700000000000273
  0
CIRCLE
  5
CF
330
104
100
AcDbEntity
  8
1
 62
     7
100
AcDbCircle
 10
-82.96274106945087
 20
14.14213562373094
 30
0.0
 40
1.700000000000214
  0
CIRCLE
  5
D0
330
104
100
AcDbEntity
  8
1
 62
     7
100
AcDbCircle
 10
-111.2470123169128
 20
14.14213562373094
 30
0.0
 40
1.700000000000301
  0
CIRCLE
  5
D1
330
104
100
AcDbEntity
  8
1
 62
     7
100
AcDbCircle
 10
21.89512330681805
 20
0.0
 30
0.0
 40
12.99999999999999
  0
CIRCLE
  5
D2
330
104
100
AcDbEntity
  8
1
 62
     7
100
AcDbCircle
 10
-38.11179400242976
 20
0.0
 30
0.0
 40
2.75
  0
CIRCLE
  5
D3
330
104
100
AcDbEntity
  8
1
 62
     7
100
AcDbCircle
 10
21.89512330681805
 20
0.0
 30
0.0
 40
1.5
  0
CIRCLE
  5
D4
330
104
100
AcDbEntity
  8
1
 62
     7
100
AcDbCircle
 10
36.03725893054912
 20
-14.14213562373099
 30
0.0
 40
1.699999999999995
  0
CIRCLE
  5
D5
330
104
100
AcDbEntity
  8
1
 62
     7
100
AcDbCircle
 10
7.752987683087212
 20
-14.14213562373098
 30
0.0
 40
1.700000000000045
  0
CIRCLE
  5
D6
330
104
100
AcDbEntity
  8
1
 62
     7
100
AcDbCircle
 10
7.752987683087212
 20
14.14213562373094
 30
0.0
 40
1.699999999999995
  0
CIRCLE
  5
D7
330
104
100
AcDbEntity
  8
1
 62
     7
100
AcDbCircle
 10
36.03725893054912
 20
14.14213562373094
 30
0.0
 40
1.700000000000053
  0
CIRCLE
  5
D8
330
104
100
AcDbEntity
  8
1
 62
     7
100
AcDbCircle
 10
21.89512330681805
 20
0.0
 30
0.0
 40
16.0
  0
CIRCLE
  5
D9
330
104
100
AcDbEntity
  8
1
 62
     7
100
AcDbCircle
 10
21.89512330681805
 20
0.0
 30
0.0
 40
12.50000000000003
  0
CIRCLE
  5
DA
330
104
100
AcDbEntity
  8
1
 62
     7
100
AcDbCircle
 10
21.89512330681805
 20
0.0
 30
0.0
 40
7.0
  0
CIRCLE
  5
DB
330
104
100
AcDbEntity
  8
1
 62
     7
100
AcDbCircle
 10
-97.10487669318196
 20
0.0
 30
0.0
 40
5.0
  0
TEXT
  5
DD
330
104
100
AcDbEntity
  8
1
 62
     7
100
AcDbText
 10
-115.6884575525284
 20
31.7862435408641
 30
0.0
 40
2.5
  1
PHT 0.05S
 41
0.9
  7
SIMPLEX
 72
     1
 11
-106.9027432668141
 21
31.7862435408641
 31
0.0
100
AcDbText
  0
ENDSEC
  0
SECTION
  2
OBJECTS
  0
DICTIONARY
  5
F0
330
0
100
AcDbDictionary
281
     1
  3
ACAD_COLOR
350
FF
  3
ACAD_GROUP
350
F1
  3
ACAD_LAYOUT
350
FD
  3
ACAD_MATERIAL
350
FE
  3
ACAD_MLINESTYLE
350
FA
  3
ACAD_PLOTSETTINGS
350
FC
  3
ACAD_PLOTSTYLENAME
350
F2
  0
DICTIONARY
  5
FF
102
{ACAD_REACTORS
330
F0
102
}
330
F0
100
AcDbDictionary
281
     1
  0
DICTIONARY
  5
F1
102
{ACAD_REACTORS
330
F0
102
}
330
F0
100
AcDbDictionary
281
     1
  0
DICTIONARY
  5
FD
102
{ACAD_REACTORS
330
F0
102
}
330
F0
100
AcDbDictionary
281
     1
  3
Layout1
350
103
  3
Model
350
107
  0
DICTIONARY
  5
FE
102
{ACAD_REACTORS
330
F0
102
}
330
F0
100
AcDbDictionary
281
     1
  0
DICTIONARY
  5
FA
102
{ACAD_REACTORS
330
F0
102
}
330
F0
100
AcDbDictionary
281
     1
  3
Standard
350
FB
  0
DICTIONARY
  5
FC
102
{ACAD_REACTORS
330
F0
102
}
330
F0
100
AcDbDictionary
281
     1
  0
ACDBDICTIONARYWDFLT
  5
F2
102
{ACAD_REACTORS
330
F0
102
}
330
F0
100
AcDbDictionary
281
     1
  3
Normal
350
F3
100
AcDbDictionaryWithDefault
340
F3
  0
LAYOUT
  5
103
102
{ACAD_REACTORS
330
FD
102
}
330
FD
100
AcDbPlotSettings
  1

  2
\\Ogura1\HP Color LaserJet 4600 PCL 5c
  4

  6

 40
0.0
 41
0.0
 42
0.0
 43
0.0
 44
0.0
 45
0.0
 46
0.0
 47
0.0
 48
0.0
 49
0.0
140
0.0
141
0.0
142
1.0
143
1.0
 70
   688
 72
     0
 73
     0
 74
     5
  7

 75
    16
147
1.0
 76
     0
 77
     2
 78
   300
148
0.0
149
0.0
100
AcDbLayout
  1
Layout1
 70
     1
 71
     1
 10
0.0
 20
0.0
 11
12.0
 21
9.0
 12
0.0
 22
0.0
 32
0.0
 14
1.000000000000000E+20
 24
1.000000000000000E+20
 34
1.000000000000000E+20
 15
-1.000000000000000E+20
 25
-1.000000000000000E+20
 35
-1.000000000000000E+20
146
0.0
 13
0.0
 23
0.0
 33
0.0
 16
1.0
 26
0.0
 36
0.0
 17
0.0
 27
1.0
 37
0.0
 76
     0
330
100
  0
LAYOUT
  5
107
102
{ACAD_REACTORS
330
FD
102
}
330
FD
100
AcDbPlotSettings
  1

  2
\\Ogura1\HP Color LaserJet 4600 PCL 5c
  4

  6

 40
0.0
 41
0.0
 42
0.0
 43
0.0
 44
0.0
 45
0.0
 46
0.0
 47
0.0
 48
0.0
 49
0.0
140
0.0
141
0.0
142
1.0
143
1.0
 70
  1712
 72
     0
 73
     0
 74
     0
  7

 75
     0
147
1.0
 76
     0
 77
     2
 78
   300
148
0.0
149
0.0
100
AcDbLayout
  1
Model
 70
     1
 71
     0
 10
0.0
 20
0.0
 11
12.0
 21
9.0
 12
0.0
 22
0.0
 32
0.0
 14
0.0
 24
0.0
 34
0.0
 15
0.0
 25
0.0
 35
0.0
146
0.0
 13
0.0
 23
0.0
 33
0.0
 16
1.0
 26
0.0
 36
0.0
 17
0.0
 27
1.0
 37
0.0
 76
     0
330
104
  0
MLINESTYLE
  5
FB
102
{ACAD_REACTORS
330
FA
102
}
330
FA
100
AcDbMlineStyle
  2
STANDARD
 70
     0
  3

 62
   256
 51
90.0
 52
90.0
 71
     2
 49
0.5
 62
   256
  6
BYLAYER
 49
-0.5
 62
   256
  6
BYLAYER
  0
ACDBPLACEHOLDER
  5
F3
102
{ACAD_REACTORS
330
F2
102
}
330
F2
  0
ENDSEC
  0
EOF
