  0
SECTION
  2
HEADER
  9
$ACADVER
  1
AC1018
  9
$ACADMAINTVER
 70
     0
  9
$DWGCODEPAGE
  3
ANSI_932
  9
$INSBASE
 10
0.0
 20
0.0
 30
0.0
  9
$EXTMIN
 10
-174.3944551966174
 20
-28.00248725588691
 30
-0.0015258207003583
  9
$EXTMAX
 10
49.99740158115674
 20
53.51110705614695
 30
0.0000000349246037
  9
$LIMMIN
 10
-174.885135979493
 20
-28.00000000000002
  9
$LIMMAX
 10
49.99053839660792
 20
53.508619420706
  9
$ORTHOMODE
 70
     0
  9
$REGENMODE
 70
     1
  9
$FILLMODE
 70
     1
  9
$QTEXTMODE
 70
     0
  9
$MIRRTEXT
 70
     1
  9
$LTSCALE
 40
1.0
  9
$ATTMODE
 70
     1
  9
$TEXTSIZE
 40
3.5
  9
$TRACEWID
 40
0.5
  9
$TEXTSTYLE
  7
STANDARD
  9
$CLAYER
  8
0
  9
$CELTYPE
  6
ByLayer
  9
$CECOLOR
 62
   256
  9
$CELTSCALE
 40
1.0
  9
$DISPSILH
 70
     0
  9
$DIMSCALE
 40
1.0
  9
$DIMASZ
 40
0.18
  9
$DIMEXO
 40
0.0625
  9
$DIMDLI
 40
0.38
  9
$DIMRND
 40
0.0
  9
$DIMDLE
 40
0.0
  9
$DIMEXE
 40
0.18
  9
$DIMTP
 40
0.0
  9
$DIMTM
 40
0.0
  9
$DIMTXT
 40
0.18
  9
$DIMCEN
 40
0.09
  9
$DIMTSZ
 40
0.0
  9
$DIMTOL
 70
     0
  9
$DIMLIM
 70
     0
  9
$DIMTIH
 70
     1
  9
$DIMTOH
 70
     1
  9
$DIMSE1
 70
     0
  9
$DIMSE2
 70
     0
  9
$DIMTAD
 70
     0
  9
$DIMZIN
 70
     0
  9
$DIMBLK
  1

  9
$DIMASO
 70
     1
  9
$DIMSHO
 70
     1
  9
$DIMPOST
  1

  9
$DIMAPOST
  1

  9
$DIMALT
 70
     0
  9
$DIMALTD
 70
     2
  9
$DIMALTF
 40
25.4
  9
$DIMLFAC
 40
1.0
  9
$DIMTOFL
 70
     0
  9
$DIMTVP
 40
0.0
  9
$DIMTIX
 70
     0
  9
$DIMSOXD
 70
     0
  9
$DIMSAH
 70
     0
  9
$DIMBLK1
  1

  9
$DIMBLK2
  1

  9
$DIMSTYLE
  2
STANDARD
  9
$DIMCLRD
 70
     0
  9
$DIMCLRE
 70
     0
  9
$DIMCLRT
 70
     0
  9
$DIMTFAC
 40
1.0
  9
$DIMGAP
 40
0.09
  9
$DIMJUST
 70
     0
  9
$DIMSD1
 70
     0
  9
$DIMSD2
 70
     0
  9
$DIMTOLJ
 70
     1
  9
$DIMTZIN
 70
     0
  9
$DIMALTZ
 70
     0
  9
$DIMALTTZ
 70
     0
  9
$DIMUPT
 70
     0
  9
$DIMDEC
 70
     4
  9
$DIMTDEC
 70
     4
  9
$DIMALTU
 70
     2
  9
$DIMALTTD
 70
     2
  9
$DIMTXSTY
  7
STANDARD
  9
$DIMAUNIT
 70
     0
  9
$DIMADEC
 70
     0
  9
$DIMALTRND
 40
0.0
  9
$DIMAZIN
 70
     0
  9
$DIMDSEP
 70
    46
  9
$DIMATFIT
 70
     3
  9
$DIMFRAC
 70
     0
  9
$DIMLDRBLK
  1

  9
$DIMLUNIT
 70
     2
  9
$DIMLWD
 70
    -2
  9
$DIMLWE
 70
    -2
  9
$DIMTMOVE
 70
     0
  9
$LUNITS
 70
     2
  9
$LUPREC
 70
     4
  9
$SKETCHINC
 40
0.1
  9
$FILLETRAD
 40
2.0
  9
$AUNITS
 70
     0
  9
$AUPREC
 70
     0
  9
$MENU
  1
ACAD
  9
$ELEVATION
 40
0.0
  9
$PELEVATION
 40
0.0
  9
$THICKNESS
 40
0.0
  9
$LIMCHECK
 70
     0
  9
$CHAMFERA
 40
0.0
  9
$CHAMFERB
 40
0.0
  9
$CHAMFERC
 40
0.0
  9
$CHAMFERD
 40
0.0
  9
$SKPOLY
 70
     0
  9
$TDCREATE
 40
2452095.336887732
  9
$TDUCREATE
 40
2452095.503554398
  9
$TDUPDATE
 40
2453209.449662755
  9
$TDUUPDATE
 40
2453209.616329421
  9
$TDINDWG
 40
0.0005112731
  9
$TDUSRTIMER
 40
0.0005112731
  9
$USRTIMER
 70
     1
  9
$ANGBASE
 50
0.0
  9
$ANGDIR
 70
     0
  9
$PDMODE
 70
     0
  9
$PDSIZE
 40
0.0
  9
$PLINEWID
 40
0.0
  9
$SPLFRAME
 70
     0
  9
$SPLINETYPE
 70
     6
  9
$SPLINESEGS
 70
     8
  9
$HANDSEED
  5
113
  9
$SURFTAB1
 70
     6
  9
$SURFTAB2
 70
     6
  9
$SURFTYPE
 70
     6
  9
$SURFU
 70
     6
  9
$SURFV
 70
     6
  9
$UCSBASE
  2

  9
$UCSNAME
  2

  9
$UCSORG
 10
0.0
 20
0.0
 30
0.0
  9
$UCSXDIR
 10
1.0
 20
0.0
 30
0.0
  9
$UCSYDIR
 10
0.0
 20
1.0
 30
0.0
  9
$UCSORTHOREF
  2

  9
$UCSORTHOVIEW
 70
     0
  9
$UCSORGTOP
 10
0.0
 20
0.0
 30
0.0
  9
$UCSORGBOTTOM
 10
0.0
 20
0.0
 30
0.0
  9
$UCSORGLEFT
 10
0.0
 20
0.0
 30
0.0
  9
$UCSORGRIGHT
 10
0.0
 20
0.0
 30
0.0
  9
$UCSORGFRONT
 10
0.0
 20
0.0
 30
0.0
  9
$UCSORGBACK
 10
0.0
 20
0.0
 30
0.0
  9
$PUCSBASE
  2

  9
$PUCSNAME
  2

  9
$PUCSORG
 10
0.0
 20
0.0
 30
0.0
  9
$PUCSXDIR
 10
1.0
 20
0.0
 30
0.0
  9
$PUCSYDIR
 10
0.0
 20
1.0
 30
0.0
  9
$PUCSORTHOREF
  2

  9
$PUCSORTHOVIEW
 70
     0
  9
$PUCSORGTOP
 10
0.0
 20
0.0
 30
0.0
  9
$PUCSORGBOTTOM
 10
0.0
 20
0.0
 30
0.0
  9
$PUCSORGLEFT
 10
0.0
 20
0.0
 30
0.0
  9
$PUCSORGRIGHT
 10
0.0
 20
0.0
 30
0.0
  9
$PUCSORGFRONT
 10
0.0
 20
0.0
 30
0.0
  9
$PUCSORGBACK
 10
0.0
 20
0.0
 30
0.0
  9
$USERI1
 70
     0
  9
$USERI2
 70
     0
  9
$USERI3
 70
     0
  9
$USERI4
 70
     0
  9
$USERI5
 70
     0
  9
$USERR1
 40
0.0
  9
$USERR2
 40
0.0
  9
$USERR3
 40
0.0
  9
$USERR4
 40
0.0
  9
$USERR5
 40
0.0
  9
$WORLDVIEW
 70
     1
  9
$SHADEDGE
 70
     3
  9
$SHADEDIF
 70
    70
  9
$TILEMODE
 70
     1
  9
$MAXACTVP
 70
    64
  9
$PINSBASE
 10
0.0
 20
0.0
 30
0.0
  9
$PLIMCHECK
 70
     0
  9
$PEXTMIN
 10
1.000000000000000E+20
 20
1.000000000000000E+20
 30
1.000000000000000E+20
  9
$PEXTMAX
 10
-1.000000000000000E+20
 20
-1.000000000000000E+20
 30
-1.000000000000000E+20
  9
$PLIMMIN
 10
0.0
 20
0.0
  9
$PLIMMAX
 10
12.0
 20
9.0
  9
$UNITMODE
 70
     0
  9
$VISRETAIN
 70
     1
  9
$PLINEGEN
 70
     0
  9
$PSLTSCALE
 70
     1
  9
$TREEDEPTH
 70
  3020
  9
$CMLSTYLE
  2
Standard
  9
$CMLJUST
 70
     0
  9
$CMLSCALE
 40
1.0
  9
$PROXYGRAPHICS
 70
     1
  9
$MEASUREMENT
 70
     0
  9
$CELWEIGHT
370
    -1
  9
$ENDCAPS
280
     0
  9
$JOINSTYLE
280
     0
  9
$LWDISPLAY
290
     0
  9
$INSUNITS
 70
     0
  9
$HYPERLINKBASE
  1

  9
$STYLESHEET
  1

  9
$XEDIT
290
     1
  9
$CEPSNTYPE
380
     0
  9
$PSTYLEMODE
290
     1
  9
$FINGERPRINTGUID
  2
{251F8A30-BC25-4B8D-8AC3-DA3235FF2A6D}
  9
$VERSIONGUID
  2
{3DF20E85-D4B9-40B1-B423-423B2EDC7D6B}
  9
$EXTNAMES
290
     1
  9
$PSVPSCALE
 40
0.0
  9
$OLESTARTUP
290
     0
  9
$SORTENTS
280
   127
  9
$INDEXCTL
280
     0
  9
$HIDETEXT
280
     0
  9
$XCLIPFRAME
290
     0
  9
$HALOGAP
280
     0
  9
$OBSCOLOR
 70
   257
  9
$OBSLTYPE
280
     0
  9
$INTERSECTIONDISPLAY
280
     0
  9
$INTERSECTIONCOLOR
 70
   257
  9
$DIMASSOC
280
     1
  9
$PROJECTNAME
  1

  0
ENDSEC
  0
SECTION
  2
CLASSES
  0
CLASS
  1
ACDBDICTIONARYWDFLT
  2
AcDbDictionaryWithDefault
  3
ObjectDBX Classes
 90
        0
 91
        1
280
     0
281
     0
  0
ENDSEC
  0
SECTION
  2
TABLES
  0
TABLE
  2
VPORT
  5
E0
330
0
100
AcDbSymbolTable
 70
     2
  0
VPORT
  5
112
330
E0
100
AcDbSymbolTableRecord
100
AcDbViewportTableRecord
  2
*Active
 70
     0
 10
0.0
 20
0.0
 11
1.0
 21
1.0
 12
-62.19852680773034
 22
12.75430990013002
 13
0.0
 23
0.0
 14
1.0
 24
1.0
 15
0.0
 25
0.0
 16
0.0
 26
0.0
 36
1.0
 17
0.0
 27
0.0
 37
0.0
 40
138.8540044290032
 41
1.625
 42
50.0
 43
0.0
 44
0.0
 50
0.0
 51
0.0
 71
     0
 72
   100
 73
     1
 74
     1
 75
     0
 76
     0
 77
     0
 78
     0
281
     0
 65
     1
110
0.0
120
0.0
130
0.0
111
1.0
121
0.0
131
0.0
112
0.0
122
1.0
132
0.0
 79
     0
146
0.0
  0
ENDTAB
  0
TABLE
  2
LTYPE
  5
DD
330
0
100
AcDbSymbolTable
 70
     9
  0
LTYPE
  5
EB
330
DD
100
AcDbSymbolTableRecord
100
AcDbLinetypeTableRecord
  2
ByBlock
 70
     0
  3

 72
    65
 73
     0
 40
0.0
  0
LTYPE
  5
EC
330
DD
100
AcDbSymbolTableRecord
100
AcDbLinetypeTableRecord
  2
ByLayer
 70
     0
  3

 72
    65
 73
     0
 40
0.0
  0
LTYPE
  5
ED
330
DD
100
AcDbSymbolTableRecord
100
AcDbLinetypeTableRecord
  2
CONTINUOUS
 70
     0
  3
Solid line
 72
    65
 73
     0
 40
0.0
  0
LTYPE
  5
FD
330
DD
100
AcDbSymbolTableRecord
100
AcDbLinetypeTableRecord
  2
BORDER
 70
     0
  3
__ __ . __ __ .
 72
    65
 73
     6
 40
10.35611658310991
 49
2.958890452317116
 74
     0
 49
-1.479445226158558
 74
     0
 49
2.958890452317116
 74
     0
 49
-1.479445226158558
 74
     0
 49
0.0
 74
     0
 49
-1.479445226158558
 74
     0
  0
LTYPE
  5
FE
330
DD
100
AcDbSymbolTableRecord
100
AcDbLinetypeTableRecord
  2
CENTER
 70
     0
  3
____ _ ____ _
 72
    65
 73
     4
 40
11.83556180926846
 49
7.397226130792793
 74
     0
 49
-1.479445226158558
 74
     0
 49
1.479445226158558
 74
     0
 49
-1.479445226158558
 74
     0
  0
LTYPE
  5
FF
330
DD
100
AcDbSymbolTableRecord
100
AcDbLinetypeTableRecord
  2
DASHDOT
 70
     0
  3
__ . __ . __ .
 72
    65
 73
     4
 40
5.917780904634233
 49
2.958890452317116
 74
     0
 49
-1.479445226158558
 74
     0
 49
0.0
 74
     0
 49
-1.479445226158558
 74
     0
  0
LTYPE
  5
100
330
DD
100
AcDbSymbolTableRecord
100
AcDbLinetypeTableRecord
  2
DASHED
 70
     0
  3
__ __ __ __ __
 72
    65
 73
     2
 40
4.438335678475676
 49
2.958890452317116
 74
     0
 49
-1.479445226158558
 74
     0
  0
LTYPE
  5
101
330
DD
100
AcDbSymbolTableRecord
100
AcDbLinetypeTableRecord
  2
DIVIDE
 70
     0
  3
__ . . __ . . 
 72
    65
 73
     6
 40
7.397226130792793
 49
2.958890452317116
 74
     0
 49
-1.479445226158558
 74
     0
 49
0.0
 74
     0
 49
-1.479445226158558
 74
     0
 49
0.0
 74
     0
 49
-1.479445226158558
 74
     0
  0
LTYPE
  5
102
330
DD
100
AcDbSymbolTableRecord
100
AcDbLinetypeTableRecord
  2
DOT
 70
     0
  3
..............
 72
    65
 73
     4
 40
2.958890452317116
 49
0.0
 74
     0
 49
-1.479445226158558
 74
     0
 49
0.0
 74
     0
 49
-1.479445226158558
 74
     0
  0
LTYPE
  5
103
330
DD
100
AcDbSymbolTableRecord
100
AcDbLinetypeTableRecord
  2
HIDDEN
 70
     0
  3
_ _ _ _ _ _ _
 72
    65
 73
     2
 40
2.219167839237838
 49
1.479445226158558
 74
     0
 49
-0.7397226130792795
 74
     0
  0
LTYPE
  5
104
330
DD
100
AcDbSymbolTableRecord
100
AcDbLinetypeTableRecord
  2
PHANTOM
 70
     0
  3
_____ _ _ _____ _ _ 
 72
    65
 73
     6
 40
14.79445226158559
 49
7.397226130792793
 74
     0
 49
-1.479445226158558
 74
     0
 49
1.479445226158558
 74
     0
 49
-1.479445226158558
 74
     0
 49
1.479445226158558
 74
     0
 49
-1.479445226158558
 74
     0
  0
ENDTAB
  0
TABLE
  2
LAYER
  5
DA
330
0
100
AcDbSymbolTable
 70
     2
  0
LAYER
  5
E8
330
DA
100
AcDbSymbolTableRecord
100
AcDbLayerTableRecord
  2
0
 70
     0
 62
     7
  6
CONTINUOUS
370
    -3
390
E7
  0
LAYER
  5
105
330
DA
100
AcDbSymbolTableRecord
100
AcDbLayerTableRecord
  2
1
 70
     0
 62
     7
  6
CONTINUOUS
370
    -3
390
E7
  0
ENDTAB
  0
TABLE
  2
STYLE
  5
DB
330
0
100
AcDbSymbolTable
 70
     4
  0
STYLE
  5
E9
330
DB
100
AcDbSymbolTableRecord
100
AcDbTextStyleTableRecord
  2
STANDARD
 70
     0
 40
0.0
 41
1.0
 50
0.0
 71
     0
 42
3.5
  3
txt
  4

  0
STYLE
  5
106
330
DB
100
AcDbSymbolTableRecord
100
AcDbTextStyleTableRecord
  2
SIMPLEX
 70
     0
 40
0.0
 41
1.0
 50
0.0
 71
     0
 42
3.5
  3
simplex
  4

  0
STYLE
  5
107
330
DB
100
AcDbSymbolTableRecord
100
AcDbTextStyleTableRecord
  2
COMPLEX
 70
     0
 40
0.0
 41
1.0
 50
0.0
 71
     0
 42
3.5
  3
complex
  4

  0
STYLE
  5
108
330
DB
100
AcDbSymbolTableRecord
100
AcDbTextStyleTableRecord
  2
ITALIC
 70
     0
 40
0.0
 41
1.0
 50
0.0
 71
     0
 42
3.5
  3
italic
  4

  0
ENDTAB
  0
TABLE
  2
VIEW
  5
DE
330
0
100
AcDbSymbolTable
 70
     0
  0
ENDTAB
  0
TABLE
  2
UCS
  5
DF
330
0
100
AcDbSymbolTable
 70
     0
  0
ENDTAB
  0
TABLE
  2
APPID
  5
E1
330
0
100
AcDbSymbolTable
 70
     1
  0
APPID
  5
EA
330
E1
100
AcDbSymbolTableRecord
100
AcDbRegAppTableRecord
  2
ACAD
 70
     0
  0
ENDTAB
  0
TABLE
  2
DIMSTYLE
  5
E2
330
0
100
AcDbSymbolTable
 70
     1
100
AcDbDimStyleTable
 71
     0
  0
DIMSTYLE
105
109
330
E2
100
AcDbSymbolTableRecord
100
AcDbDimStyleTableRecord
  2
STANDARD
 70
     0
279
     2
340
E9
  0
ENDTAB
  0
TABLE
  2
BLOCK_RECORD
  5
D9
330
0
100
AcDbSymbolTable
 70
     2
  0
BLOCK_RECORD
  5
F8
330
D9
100
AcDbSymbolTableRecord
100
AcDbBlockTableRecord
  2
*Model_Space
340
FB
  0
BLOCK_RECORD
  5
F4
330
D9
100
AcDbSymbolTableRecord
100
AcDbBlockTableRecord
  2
*Paper_Space
340
F7
  0
BLOCK_RECORD
  5
10E
330
D9
100
AcDbSymbolTableRecord
100
AcDbBlockTableRecord
  2
$MODEL_SPACE
340
0
  0
BLOCK_RECORD
  5
110
330
D9
100
AcDbSymbolTableRecord
100
AcDbBlockTableRecord
  2
$PAPER_SPACE
340
0
  0
ENDTAB
  0
ENDSEC
  0
SECTION
  2
BLOCKS
  0
BLOCK
  5
F9
330
F8
100
AcDbEntity
  8
0
100
AcDbBlockBegin
  2
*Model_Space
 70
     0
 10
0.0
 20
0.0
 30
0.0
  3
*Model_Space
  1

  0
ENDBLK
  5
FA
330
F8
100
AcDbEntity
  8
0
100
AcDbBlockEnd
  0
BLOCK
  5
F5
330
F4
100
AcDbEntity
 67
     1
  8
0
100
AcDbBlockBegin
  2
*Paper_Space
 70
     0
 10
0.0
 20
0.0
 30
0.0
  3
*Paper_Space
  1

  0
ENDBLK
  5
F6
330
F4
100
AcDbEntity
 67
     1
  8
0
100
AcDbBlockEnd
  0
BLOCK
  5
10F
330
10E
100
AcDbEntity
  8
0
100
AcDbBlockBegin
  2
$MODEL_SPACE
 70
     0
 10
0.0
 20
0.0
 30
0.0
  3
$MODEL_SPACE
  1

  0
ENDBLK
  5
20
330
10E
100
AcDbEntity
  8
0
100
AcDbBlockEnd
  0
BLOCK
  5
111
330
110
100
AcDbEntity
  8
0
100
AcDbBlockBegin
  2
$PAPER_SPACE
 70
     0
 10
0.0
 20
0.0
 30
0.0
  3
$PAPER_SPACE
  1

  0
ENDBLK
  5
1C
330
110
100
AcDbEntity
  8
0
100
AcDbBlockEnd
  0
ENDSEC
  0
SECTION
  2
ENTITIES
  0
LINE
  5
33
330
F8
100
AcDbEntity
  8
1
 62
     7
100
AcDbLine
 10
-66.10946160339215
 20
-26.0
 30
0.0
 11
-69.30946160339214
 21
-26.0
 31
0.0
  0
LINE
  5
34
330
F8
100
AcDbEntity
  8
1
 62
     7
100
AcDbLine
 10
-69.30946160339214
 20
-28.0
 30
0.0
 11
-69.30946160339214
 21
-2.236626924634506
 31
0.0
  0
LINE
  5
35
330
F8
100
AcDbEntity
  8
1
 62
     7
100
AcDbLine
 10
-66.10946160339215
 20
-2.236626924634506
 30
0.0
 11
-66.10946160339215
 21
-28.0
 31
0.0
  0
LINE
  5
36
330
F8
100
AcDbEntity
  8
1
 62
     7
100
AcDbLine
 10
-66.98777376690511
 20
-1.25
 30
0.0
 11
-66.26608593041807
 21
0.0000000000000002
 31
0.0
  0
LINE
  5
37
330
F8
100
AcDbEntity
  8
1
 62
     7
100
AcDbLine
 10
-68.43114943987917
 20
-1.25
 30
0.0
 11
-66.98777376690511
 21
-1.25
 31
0.0
  0
LINE
  5
38
330
F8
100
AcDbEntity
  8
1
 62
     7
100
AcDbLine
 10
-69.15283727636621
 20
-0.0000000000000002
 30
0.0
 11
-68.43114943987917
 21
-1.25
 31
0.0
  0
LINE
  5
39
330
F8
100
AcDbEntity
  8
1
 62
     7
100
AcDbLine
 10
-68.43114943987917
 20
1.25
 30
0.0
 11
-69.15283727636621
 21
-0.0000000000000002
 31
0.0
  0
LINE
  5
3A
330
F8
100
AcDbEntity
  8
1
 62
     7
100
AcDbLine
 10
-66.98777376690511
 20
1.25
 30
0.0
 11
-68.43114943987917
 21
1.25
 31
0.0
  0
LINE
  5
3B
330
F8
100
AcDbEntity
  8
1
 62
     7
100
AcDbLine
 10
-66.26608593041807
 20
0.0000000000000002
 30
0.0
 11
-66.98777376690511
 21
1.25
 31
0.0
  0
LINE
  5
3C
330
F8
100
AcDbEntity
  8
1
 62
     7
100
AcDbLine
 10
-118.3830050057855
 20
26.5
 30
0.0
 11
-118.3830050057855
 21
-26.5
 31
0.0
  0
LINE
  5
3D
330
F8
100
AcDbEntity
  8
1
 62
     7
100
AcDbLine
 10
-132.6889061663698
 20
-7.681125046262038
 30
0.0
 11
-132.8839061663698
 21
-8.018874953737977
 31
0.0
  0
LINE
  5
3E
330
F8
100
AcDbEntity
  8
1
 62
     7
100
AcDbLine
 10
-130.841698187712
 20
-7.471666975080222
 30
0.0
 11
-131.179448095188
 21
-7.276666975080232
 31
0.0
  0
LINE
  5
3F
330
F8
100
AcDbEntity
  8
1
 62
     7
100
AcDbLine
 10
-130.6322401165303
 20
-9.31887495373796
 30
0.0
 11
-130.4372401165302
 21
-8.981125046262048
 31
0.0
  0
LINE
  5
40
330
F8
100
AcDbEntity
  8
1
 62
     7
100
AcDbLine
 10
-132.479448095188
 20
-9.528333024919804
 30
0.0
 11
-132.1416981877121
 21
-9.723333024919798
 31
0.0
  0
LINE
  5
41
330
F8
100
AcDbEntity
  8
1
 62
     7
100
AcDbLine
 10
-159.8821038452011
 20
-8.018874953737977
 30
0.0
 11
-160.0771038452011
 21
-7.681125046262038
 31
0.0
  0
LINE
  5
42
330
F8
100
AcDbEntity
  8
1
 62
     7
100
AcDbLine
 10
-160.6243118238588
 20
-9.723333024919769
 30
0.0
 11
-160.2865619163829
 21
-9.528333024919776
 31
0.0
  0
LINE
  5
43
330
F8
100
AcDbEntity
  8
1
 62
     7
100
AcDbLine
 10
-162.3287698950407
 20
-8.981125046262048
 30
0.0
 11
-162.1337698950406
 21
-9.31887495373796
 31
0.0
  0
LINE
  5
44
330
F8
100
AcDbEntity
  8
1
 62
     7
100
AcDbLine
 10
-161.586561916383
 20
-7.276666975080232
 30
0.0
 11
-161.9243118238588
 21
-7.471666975080222
 31
0.0
  0
LINE
  5
45
330
F8
100
AcDbEntity
  8
1
 62
     7
100
AcDbLine
 10
-146.5780050057855
 20
15.7
 30
0.0
 11
-146.1880050057855
 21
15.7
 31
0.0
  0
LINE
  5
46
330
F8
100
AcDbEntity
  8
1
 62
     7
100
AcDbLine
 10
-147.6830050057855
 20
17.195
 30
0.0
 11
-147.6830050057855
 21
16.805
 31
0.0
  0
LINE
  5
47
330
F8
100
AcDbEntity
  8
1
 62
     7
100
AcDbLine
 10
-146.1880050057855
 20
18.3
 30
0.0
 11
-146.5780050057855
 21
18.3
 31
0.0
  0
LINE
  5
48
330
F8
100
AcDbEntity
  8
1
 62
     7
100
AcDbLine
 10
-145.0830050057855
 20
16.805
 30
0.0
 11
-145.0830050057855
 21
17.195
 31
0.0
  0
LINE
  5
49
330
F8
100
AcDbEntity
  8
1
 62
     7
100
AcDbLine
 10
-143.8830050057854
 20
1.658312395177699
 30
0.0
 11
-143.8830050057854
 21
-1.658312395177699
 31
0.0
  0
LINE
  5
4A
330
F8
100
AcDbEntity
  8
1
 62
     7
100
AcDbLine
 10
-115.0830050057854
 20
2.75
 30
0.0
 11
-115.0830050057854
 21
-2.75
 31
0.0
  0
LINE
  5
4B
330
F8
100
AcDbEntity
  8
1
 62
     7
100
AcDbLine
 10
-115.0830050057854
 20
-2.75
 30
0.0
 11
-118.3830050057855
 21
-2.75
 31
0.0
  0
LINE
  5
4C
330
F8
100
AcDbEntity
  8
1
 62
     7
100
AcDbLine
 10
-114.8830050057854
 20
-2.403589838486198
 30
0.0
 11
-115.0830050057854
 21
-2.75
 31
0.0
  0
LINE
  5
4D
330
F8
100
AcDbEntity
  8
1
 62
     7
100
AcDbLine
 10
-114.8830050057854
 20
2.403589838486198
 30
0.0
 11
-114.8830050057854
 21
-2.403589838486198
 31
0.0
  0
LINE
  5
4E
330
F8
100
AcDbEntity
  8
1
 62
     7
100
AcDbLine
 10
-115.0830050057854
 20
2.75
 30
0.0
 11
-114.8830050057854
 21
2.403589838486198
 31
0.0
  0
LINE
  5
4F
330
F8
100
AcDbEntity
  8
1
 62
     7
100
AcDbLine
 10
-118.3830050057855
 20
2.75
 30
0.0
 11
-115.0830050057854
 21
2.75
 31
0.0
  0
LINE
  5
50
330
F8
100
AcDbEntity
  8
1
 62
     7
100
AcDbLine
 10
-119.8830050057855
 20
28.0
 30
0.0
 11
-118.3830050057855
 21
26.5
 31
0.0
  0
LINE
  5
51
330
F8
100
AcDbEntity
  8
1
 62
     7
100
AcDbLine
 10
-119.8830050057855
 20
-28.0
 30
0.0
 11
-172.8830050057855
 21
-28.0
 31
0.0
  0
LINE
  5
52
330
F8
100
AcDbEntity
  8
1
 62
     7
100
AcDbLine
 10
-174.3830050057854
 20
-26.5
 30
0.0
 11
-174.3830050057854
 21
26.5
 31
0.0
  0
LINE
  5
53
330
F8
100
AcDbEntity
  8
1
 62
     7
100
AcDbLine
 10
-172.8830050057855
 20
28.0
 30
0.0
 11
-119.8830050057855
 21
28.0
 31
0.0
  0
LINE
  5
54
330
F8
100
AcDbEntity
  8
1
  6
DASHDOT
 62
     3
100
AcDbLine
 10
-140.9953045612965
 20
0.0
 30
0.0
 11
-151.7707054502745
 21
0.0
 31
0.0
  0
LINE
  5
55
330
F8
100
AcDbEntity
  8
1
  6
DASHDOT
 62
     3
100
AcDbLine
 10
-146.3830050057854
 20
-5.387700444488899
 30
0.0
 11
-146.3830050057854
 21
5.387700444488899
 31
0.0
  0
LINE
  5
56
330
F8
100
AcDbEntity
  8
1
  6
DASHDOT
 62
     3
100
AcDbLine
 10
-119.4603758805812
 20
26.92262912520428
 30
0.0
 11
-123.8081594479315
 21
22.57484555785409
 31
0.0
  0
LINE
  5
57
330
F8
100
AcDbEntity
  8
1
 62
     7
100
AcDbLine
 10
-118.3830050057855
 20
-26.5
 30
0.0
 11
-119.8830050057855
 21
-28.0
 31
0.0
  0
LINE
  5
58
330
F8
100
AcDbEntity
  8
1
  6
DASHDOT
 62
     3
100
AcDbLine
 10
-119.460375880581
 20
-26.92262912520439
 30
0.0
 11
-123.8081594479313
 21
-22.57484555785421
 31
0.0
  0
LINE
  5
59
330
F8
100
AcDbEntity
  8
1
 62
     7
100
AcDbLine
 10
-172.8830050057855
 20
-28.0
 30
0.0
 11
-174.3830050057854
 21
-26.5
 31
0.0
  0
LINE
  5
5A
330
F8
100
AcDbEntity
  8
1
  6
DASHDOT
 62
     3
100
AcDbLine
 10
-173.3056341309899
 20
-26.92262912520439
 30
0.0
 11
-168.9578505636396
 21
-22.57484555785421
 31
0.0
  0
LINE
  5
5B
330
F8
100
AcDbEntity
  8
1
 62
     7
100
AcDbLine
 10
-174.3830050057854
 20
26.5
 30
0.0
 11
-172.8830050057855
 21
28.0
 31
0.0
  0
LINE
  5
5C
330
F8
100
AcDbEntity
  8
1
  6
DASHDOT
 62
     3
100
AcDbLine
 10
-173.3056341309899
 20
26.92262912520428
 30
0.0
 11
-168.9578505636396
 21
22.57484555785409
 31
0.0
  0
LINE
  5
5D
330
F8
100
AcDbEntity
  8
1
 62
     7
100
AcDbLine
 10
-9.309461603392206
 20
-2.75
 30
0.0
 11
-9.309461603392206
 21
2.75
 31
0.0
  0
LINE
  5
5E
330
F8
100
AcDbEntity
  8
1
 62
     7
100
AcDbLine
 10
-6.009461603392137
 20
-2.75
 30
0.0
 11
-9.309461603392206
 21
-2.75
 31
0.0
  0
LINE
  5
5F
330
F8
100
AcDbEntity
  8
1
 62
     7
100
AcDbLine
 10
-9.309461603392206
 20
-2.75
 30
0.0
 11
-9.509461603392141
 21
-2.403589838486198
 31
0.0
  0
LINE
  5
60
330
F8
100
AcDbEntity
  8
1
 62
     7
100
AcDbLine
 10
-9.509461603392141
 20
-2.403589838486198
 30
0.0
 11
-9.509461603392141
 21
2.403589838486198
 31
0.0
  0
LINE
  5
61
330
F8
100
AcDbEntity
  8
1
 62
     7
100
AcDbLine
 10
-9.509461603392141
 20
2.403589838486198
 30
0.0
 11
-9.309461603392206
 21
2.75
 31
0.0
  0
LINE
  5
62
330
F8
100
AcDbEntity
  8
1
 62
     7
100
AcDbLine
 10
-9.309461603392206
 20
2.75
 30
0.0
 11
-6.009461603392137
 21
2.75
 31
0.0
  0
LINE
  5
63
330
F8
100
AcDbEntity
  8
1
 62
     7
100
AcDbLine
 10
20.99053839660789
 20
-23.97915761656361
 30
0.0
 11
20.99053839660789
 21
-27.9821371592665
 31
0.0
  0
LINE
  5
64
330
F8
100
AcDbEntity
  8
1
 62
     7
100
AcDbLine
 10
22.9905383966079
 20
23.97915761656357
 30
0.0
 11
22.9905383966079
 21
27.98213715926639
 31
0.0
  0
LINE
  5
65
330
F8
100
AcDbEntity
  8
1
 62
     7
100
AcDbLine
 10
20.99053839660789
 20
27.98213715926639
 30
0.0
 11
20.99053839660789
 21
23.97915761656357
 31
0.0
  0
LINE
  5
66
330
F8
100
AcDbEntity
  8
1
 62
     7
100
AcDbLine
 10
22.9905383966079
 20
-27.9821371592665
 30
0.0
 11
22.9905383966079
 21
-23.97915761656361
 31
0.0
  0
LINE
  5
67
330
F8
100
AcDbEntity
  8
1
 62
     7
100
AcDbLine
 10
-6.009461603392137
 20
26.5
 30
0.0
 11
-4.509461603392137
 21
28.0
 31
0.0
  0
LINE
  5
68
330
F8
100
AcDbEntity
  8
1
 62
     7
100
AcDbLine
 10
-6.009461603392137
 20
-26.5
 30
0.0
 11
-6.009461603392137
 21
26.5
 31
0.0
  0
LINE
  5
69
330
F8
100
AcDbEntity
  8
1
 62
     7
100
AcDbLine
 10
48.49053839660792
 20
-28.0
 30
0.0
 11
-4.509461603392137
 21
-28.0
 31
0.0
  0
LINE
  5
6A
330
F8
100
AcDbEntity
  8
1
 62
     7
100
AcDbLine
 10
49.99053839660792
 20
26.5
 30
0.0
 11
49.99053839660792
 21
-26.5
 31
0.0
  0
LINE
  5
6B
330
F8
100
AcDbEntity
  8
1
 62
     7
100
AcDbLine
 10
-4.509461603392137
 20
28.0
 30
0.0
 11
48.49053839660792
 21
28.0
 31
0.0
  0
LINE
  5
6C
330
F8
100
AcDbEntity
  8
1
 62
     7
100
AcDbLine
 10
-71.00946160339214
 20
28.0
 30
0.0
 11
-71.00946160339214
 21
-28.0
 31
0.0
  0
LINE
  5
6D
330
F8
100
AcDbEntity
  8
1
 62
     7
100
AcDbLine
 10
-87.50946160339214
 20
-3.0
 30
0.0
 11
-87.50946160339214
 21
3.0
 31
0.0
  0
LINE
  5
6E
330
F8
100
AcDbEntity
  8
1
 62
     7
100
AcDbLine
 10
-87.50946160339214
 20
3.0
 30
0.0
 11
-73.00946160339214
 21
3.0
 31
0.0
  0
LINE
  5
6F
330
F8
100
AcDbEntity
  8
1
 62
     7
100
AcDbLine
 10
-51.00946160339214
 20
-12.0
 30
0.0
 11
-52.50946160339214
 21
-12.0
 31
0.0
  0
LINE
  5
70
330
F8
100
AcDbEntity
  8
1
 62
     7
100
AcDbLine
 10
-52.50946160339214
 20
-24.0
 30
0.0
 11
-52.50946160339214
 21
24.0
 31
0.0
  0
LINE
  5
71
330
F8
100
AcDbEntity
  8
1
 62
     7
100
AcDbLine
 10
-52.50946160339214
 20
-24.0
 30
0.0
 11
-54.909461603392
 21
-24.0
 31
0.0
  0
LINE
  5
72
330
F8
100
AcDbEntity
  8
1
 62
     7
100
AcDbLine
 10
-52.50946160339214
 20
12.0
 30
0.0
 11
-51.00946160339214
 21
12.0
 31
0.0
  0
LINE
  5
73
330
F8
100
AcDbEntity
  8
1
 62
     7
100
AcDbLine
 10
-51.00946160339214
 20
12.0
 30
0.0
 11
-51.00946160339214
 21
-12.0
 31
0.0
  0
LINE
  5
74
330
F8
100
AcDbEntity
  8
1
 62
     7
100
AcDbLine
 10
-54.909461603392
 20
24.0
 30
0.0
 11
-54.909461603392
 21
-24.0
 31
0.0
  0
LINE
  5
75
330
F8
100
AcDbEntity
  8
1
 62
     7
100
AcDbLine
 10
-54.909461603392
 20
24.0
 30
0.0
 11
-52.50946160339214
 21
24.0
 31
0.0
  0
LINE
  5
76
330
F8
100
AcDbEntity
  8
1
 62
     7
100
AcDbLine
 10
-73.00946160339214
 20
-28.0
 30
0.0
 11
-73.00946160339214
 21
28.0
 31
0.0
  0
LINE
  5
77
330
F8
100
AcDbEntity
  8
1
 62
     7
100
AcDbLine
 10
-55.10946160339222
 20
-28.0
 30
0.0
 11
-73.00946160339214
 21
-28.0
 31
0.0
  0
LINE
  5
78
330
F8
100
AcDbEntity
  8
1
 62
     7
100
AcDbLine
 10
-55.10946160339222
 20
-28.0
 30
0.0
 11
-55.10946160339222
 21
28.0
 31
0.0
  0
LINE
  5
79
330
F8
100
AcDbEntity
  8
1
 62
     7
100
AcDbLine
 10
-55.10946160339222
 20
28.0
 30
0.0
 11
-73.00946160339214
 21
28.0
 31
0.0
  0
LINE
  5
7A
330
F8
100
AcDbEntity
  8
1
 62
     7
100
AcDbLine
 10
-73.00946160339214
 20
-3.0
 30
0.0
 11
-87.50946160339214
 21
-3.0
 31
0.0
  0
LINE
  5
7B
330
F8
100
AcDbEntity
  8
1
 62
     7
100
AcDbLine
 10
-54.909461603392
 20
-3.0
 30
0.0
 11
-55.10946160339222
 21
-3.0
 31
0.0
  0
LINE
  5
7C
330
F8
100
AcDbEntity
  8
1
 62
     7
100
AcDbLine
 10
-54.909461603392
 20
3.0
 30
0.0
 11
-55.10946160339222
 21
3.0
 31
0.0
  0
LINE
  5
7D
330
F8
100
AcDbEntity
  8
1
  6
DASHDOT
 62
     3
100
AcDbLine
 10
27.37823884109682
 20
0.0
 30
0.0
 11
16.6028379521189
 21
0.0
 31
0.0
  0
LINE
  5
7E
330
F8
100
AcDbEntity
  8
1
  6
DASHDOT
 62
     3
100
AcDbLine
 10
21.99053839660789
 20
5.387700444488899
 30
0.0
 11
21.99053839660789
 21
-5.387700444488899
 31
0.0
  0
LINE
  5
7F
330
F8
100
AcDbEntity
  8
1
  6
DASHDOT
 62
     3
100
AcDbLine
 10
-0.5843071612462865
 20
22.57484555785409
 30
0.0
 11
-4.932090728596505
 21
26.92262912520428
 31
0.0
  0
LINE
  5
80
330
F8
100
AcDbEntity
  8
1
 62
     7
100
AcDbLine
 10
-4.509461603392137
 20
-28.0
 30
0.0
 11
-6.009461603392137
 21
-26.5
 31
0.0
  0
LINE
  5
81
330
F8
100
AcDbEntity
  8
1
  6
DASHDOT
 62
     3
100
AcDbLine
 10
-0.5843071612462865
 20
-22.57484555785421
 30
0.0
 11
-4.932090728596505
 21
-26.92262912520439
 31
0.0
  0
LINE
  5
82
330
F8
100
AcDbEntity
  8
1
 62
     7
100
AcDbLine
 10
49.99053839660792
 20
-26.5
 30
0.0
 11
48.49053839660792
 21
-28.0
 31
0.0
  0
LINE
  5
83
330
F8
100
AcDbEntity
  8
1
  6
DASHDOT
 62
     3
100
AcDbLine
 10
44.56538395446201
 20
-22.57484555785421
 30
0.0
 11
48.9131675218122
 21
-26.92262912520439
 31
0.0
  0
LINE
  5
84
330
F8
100
AcDbEntity
  8
1
 62
     7
100
AcDbLine
 10
48.49053839660792
 20
28.0
 30
0.0
 11
49.99053839660792
 21
26.5
 31
0.0
  0
LINE
  5
85
330
F8
100
AcDbEntity
  8
1
  6
DASHDOT
 62
     3
100
AcDbLine
 10
44.5653839544619
 20
22.57484555785409
 30
0.0
 11
48.91316752181211
 21
26.92262912520428
 31
0.0
  0
LINE
  5
86
330
F8
100
AcDbEntity
  8
1
  6
DASHDOT
 62
     3
100
AcDbLine
 10
-48.00946160339214
 20
0.0
 30
0.0
 11
-51.00946160339214
 21
0.0
 31
0.0
  0
LINE
  5
87
330
F8
100
AcDbEntity
  8
1
  6
DASHDOT
 62
     3
100
AcDbLine
 10
-87.50946160339214
 20
0.0
 30
0.0
 11
-90.50946160339213
 21
0.0
 31
0.0
  0
LINE
  5
88
330
F8
100
AcDbEntity
  8
1
 62
     7
100
AcDbLine
 10
-87.50946160339214
 20
1.658312395177687
 30
0.0
 11
-75.50946160339214
 21
1.658312395177687
 31
0.0
  0
LINE
  5
89
330
F8
100
AcDbEntity
  8
1
 62
     7
100
AcDbLine
 10
-75.50946160339214
 20
1.658312395177687
 30
0.0
 11
-75.50946160339214
 21
-1.658312395177715
 31
0.0
  0
LINE
  5
8A
330
F8
100
AcDbEntity
  8
1
 62
     7
100
AcDbLine
 10
-75.50946160339214
 20
-1.658312395177715
 30
0.0
 11
-87.50946160339214
 21
-1.658312395177715
 31
0.0
  0
LINE
  5
8B
330
F8
100
AcDbEntity
  8
1
 62
     3
100
AcDbLine
 10
-87.50946160339214
 20
1.658312395177687
 30
0.0
 11
-75.50946160339214
 21
-1.658312395177715
 31
0.0
  0
LINE
  5
8C
330
F8
100
AcDbEntity
  8
1
 62
     3
100
AcDbLine
 10
-75.50946160339214
 20
1.658312395177687
 30
0.0
 11
-87.50946160339214
 21
-1.658312395177715
 31
0.0
  0
LINE
  5
8D
330
F8
100
AcDbEntity
  8
1
 62
     7
100
AcDbLine
 10
-143.9830050057854
 20
-3.594590640382231
 30
0.0
 11
-143.9830050057854
 21
-4.68496231131986
 31
0.0
  0
LINE
  5
8E
330
F8
100
AcDbEntity
  8
1
 62
     7
100
AcDbLine
 10
-146.0830050057855
 20
-5.584962311319859
 30
0.0
 11
-144.8830050057854
 21
-5.584962311319859
 31
0.0
  0
LINE
  5
8F
330
F8
100
AcDbEntity
  8
1
 62
     7
100
AcDbLine
 10
-146.0830050057855
 20
-5.584962311319859
 30
0.0
 11
-146.0830050057855
 21
-4.784962311319858
 31
0.0
  0
LINE
  5
90
330
F8
100
AcDbEntity
  8
1
 62
     7
100
AcDbLine
 10
-146.0830050057855
 20
-4.784962311319858
 30
0.0
 11
-145.3330050057855
 21
-4.78496231131986
 31
0.0
  0
LINE
  5
91
330
F8
100
AcDbEntity
  8
1
 62
     7
100
AcDbLine
 10
-145.3330050057855
 20
-3.68496231131986
 30
0.0
 11
-146.0830050057855
 21
-3.684962311319858
 31
0.0
  0
LINE
  5
92
330
F8
100
AcDbEntity
  8
1
 62
     7
100
AcDbLine
 10
-146.0830050057855
 20
-3.684962311319858
 30
0.0
 11
-146.0830050057855
 21
-2.984962311319859
 31
0.0
  0
LINE
  5
93
330
F8
100
AcDbEntity
  8
1
 62
     7
100
AcDbLine
 10
-146.6830050057855
 20
-2.984962311319859
 30
0.0
 11
-146.6830050057855
 21
-3.684962311319858
 31
0.0
  0
LINE
  5
94
330
F8
100
AcDbEntity
  8
1
 62
     7
100
AcDbLine
 10
-146.6830050057855
 20
-3.684962311319858
 30
0.0
 11
-147.4330050057855
 21
-3.68496231131986
 31
0.0
  0
LINE
  5
95
330
F8
100
AcDbEntity
  8
1
 62
     7
100
AcDbLine
 10
-147.4330050057855
 20
-4.78496231131986
 30
0.0
 11
-146.6830050057855
 21
-4.784962311319858
 31
0.0
  0
LINE
  5
96
330
F8
100
AcDbEntity
  8
1
 62
     7
100
AcDbLine
 10
-146.6830050057855
 20
-4.784962311319858
 30
0.0
 11
-146.6830050057855
 21
-5.584962311319859
 31
0.0
  0
LINE
  5
97
330
F8
100
AcDbEntity
  8
1
 62
     7
100
AcDbLine
 10
-147.8830050057854
 20
-5.584962311319859
 30
0.0
 11
-146.6830050057855
 21
-5.584962311319859
 31
0.0
  0
LINE
  5
98
330
F8
100
AcDbEntity
  8
1
 62
     7
100
AcDbLine
 10
-148.7830050057854
 20
-4.68496231131986
 30
0.0
 11
-148.7830050057854
 21
-3.594590640382231
 31
0.0
  0
ARC
  5
99
330
F8
100
AcDbEntity
  8
1
 62
     7
100
AcDbCircle
 10
-142.5830050057855
 20
-3.594590640382231
 30
0.0
 40
1.400000000000025
100
AcDbArc
 50
135.8057962770728
 51
180.0
  0
ARC
  5
9A
330
F8
100
AcDbEntity
  8
1
 62
     7
100
AcDbCircle
 10
-144.8830050057854
 20
-4.68496231131986
 30
0.0
 40
0.8999999999999992
100
AcDbArc
 50
270.0
 51
0.0
  0
ARC
  5
9B
330
F8
100
AcDbEntity
  8
1
 62
     7
100
AcDbCircle
 10
-147.8830050057854
 20
-4.68496231131986
 30
0.0
 40
0.9000000000000055
100
AcDbArc
 50
180.0
 51
270.0
  0
ARC
  5
9C
330
F8
100
AcDbEntity
  8
1
 62
     7
100
AcDbCircle
 10
-150.1830050057854
 20
-3.594590640382231
 30
0.0
 40
1.400000000000004
100
AcDbArc
 50
0.0
 51
44.19420372292798
  0
ARC
  5
9D
330
F8
100
AcDbEntity
  8
1
 62
     7
100
AcDbCircle
 10
-146.3830050057854
 20
0.0
 30
0.0
 40
28.00000000000009
100
AcDbArc
 50
178.9768474856344
 51
181.0231525143655
  0
ARC
  5
9E
330
F8
100
AcDbEntity
  8
1
 62
     7
100
AcDbCircle
 10
-174.3830050057854
 20
0.0
 30
0.0
 40
0.5
100
AcDbArc
 50
270.0
 51
90.0
  0
ARC
  5
9F
330
F8
100
AcDbEntity
  8
1
 62
     7
100
AcDbCircle
 10
-132.1364061663697
 20
-6.724166975080223
 30
0.0
 40
1.105000000000014
100
AcDbArc
 50
239.9999999999999
 51
329.9999999999992
  0
ARC
  5
A0
330
F8
100
AcDbEntity
  8
1
 62
     7
100
AcDbCircle
 10
-129.8847401165303
 20
-8.024166975080234
 30
0.0
 40
1.104999999999989
100
AcDbArc
 50
149.9999999999991
 51
240.0000000000011
  0
ARC
  5
A1
330
F8
100
AcDbEntity
  8
1
 62
     7
100
AcDbCircle
 10
-131.1847401165302
 20
-10.27583302491981
 30
0.0
 40
1.10500000000003
100
AcDbArc
 50
60.00000000000206
 51
149.9999999999997
  0
ARC
  5
A2
330
F8
100
AcDbEntity
  8
1
 62
     7
100
AcDbCircle
 10
-133.4364061663698
 20
-8.975833024919792
 30
0.0
 40
1.105000000000014
100
AcDbArc
 50
329.9999999999997
 51
59.99999999999989
  0
ARC
  5
A3
330
F8
100
AcDbEntity
  8
1
 62
     7
100
AcDbCircle
 10
-159.3296038452011
 20
-8.975833024919792
 30
0.0
 40
1.104999999999999
100
AcDbArc
 50
119.9999999999987
 51
209.9999999999995
  0
ARC
  5
A4
330
F8
100
AcDbEntity
  8
1
 62
     7
100
AcDbCircle
 10
-161.5812698950406
 20
-10.27583302491977
 30
0.0
 40
1.104999999999991
100
AcDbArc
 50
30.00000000000102
 51
119.9999999999999
  0
ARC
  5
A5
330
F8
100
AcDbEntity
  8
1
 62
     7
100
AcDbCircle
 10
-162.8812698950406
 20
-8.024166975080234
 30
0.0
 40
1.105000000000014
100
AcDbArc
 50
300.0
 51
30.00000000000011
  0
ARC
  5
A6
330
F8
100
AcDbEntity
  8
1
 62
     7
100
AcDbCircle
 10
-160.6296038452011
 20
-6.724166975080223
 30
0.0
 40
1.105000000000014
100
AcDbArc
 50
210.0
 51
299.9999999999989
  0
ARC
  5
A7
330
F8
100
AcDbEntity
  8
1
 62
     7
100
AcDbCircle
 10
-147.6830050057855
 20
15.7
 30
0.0
 40
1.104999999999989
100
AcDbArc
 50
0.0
 51
90.0
  0
ARC
  5
A8
330
F8
100
AcDbEntity
  8
1
 62
     7
100
AcDbCircle
 10
-147.6830050057855
 20
18.3
 30
0.0
 40
1.104999999999999
100
AcDbArc
 50
270.0
 51
0.0
  0
ARC
  5
A9
330
F8
100
AcDbEntity
  8
1
 62
     7
100
AcDbCircle
 10
-145.0830050057855
 20
18.3
 30
0.0
 40
1.104999999999989
100
AcDbArc
 50
180.0
 51
270.0
  0
ARC
  5
AA
330
F8
100
AcDbEntity
  8
1
 62
     7
100
AcDbCircle
 10
-145.0830050057855
 20
15.7
 30
0.0
 40
1.104999999999999
100
AcDbArc
 50
90.0
 51
180.0
  0
ARC
  5
AB
330
F8
100
AcDbEntity
  8
1
  6
DASHDOT
 62
     3
100
AcDbCircle
 10
-146.3830050057854
 20
0.0
 30
0.0
 40
35.00000000000018
100
AcDbArc
 50
39.96560573153788
 51
50.03439426846223
  0
ARC
  5
AC
330
F8
100
AcDbEntity
  8
1
  6
DASHDOT
 62
     3
100
AcDbCircle
 10
-146.3830050057854
 20
0.0
 30
0.0
 40
35.00000000000009
100
AcDbArc
 50
309.9656057315381
 51
320.0343942684618
  0
ARC
  5
AD
330
F8
100
AcDbEntity
  8
1
  6
DASHDOT
 62
     3
100
AcDbCircle
 10
-146.3830050057854
 20
0.0
 30
0.0
 40
35.00000000000028
100
AcDbArc
 50
219.965605731538
 51
230.0343942684623
  0
ARC
  5
AE
330
F8
100
AcDbEntity
  8
1
  6
DASHDOT
 62
     3
100
AcDbCircle
 10
-146.3830050057854
 20
0.0
 30
0.0
 40
35.00000000000022
100
AcDbArc
 50
129.9656057315382
 51
140.034394268462
  0
ARC
  5
AF
330
F8
100
AcDbEntity
  8
1
 62
     7
100
AcDbCircle
 10
21.99053839660789
 20
0.0
 30
0.0
 40
24.50000000000003
100
AcDbArc
 50
272.3392530741721
 51
87.66074692582787
  0
ARC
  5
B0
330
F8
100
AcDbEntity
  8
1
 62
     7
100
AcDbCircle
 10
21.99053839660789
 20
0.0
 30
0.0
 40
25.99999999999994
100
AcDbArc
 50
87.79577249602796
 51
92.20422750397199
  0
ARC
  5
B1
330
F8
100
AcDbEntity
  8
1
 62
     7
100
AcDbCircle
 10
21.99053839660789
 20
0.0
 30
0.0
 40
24.49999999999997
100
AcDbArc
 50
92.33925307417214
 51
267.6607469258278
  0
ARC
  5
B2
330
F8
100
AcDbEntity
  8
1
 62
     7
100
AcDbCircle
 10
21.99053839660789
 20
0.0
 30
0.0
 40
26.00000000000005
100
AcDbArc
 50
267.7957724960281
 51
272.2042275039721
  0
ARC
  5
B3
330
F8
100
AcDbEntity
  8
1
  6
DASHDOT
 62
     3
100
AcDbCircle
 10
21.99053839660789
 20
0.0
 30
0.0
 40
35.00000000000023
100
AcDbArc
 50
129.9656057315381
 51
140.0343942684622
  0
ARC
  5
B4
330
F8
100
AcDbEntity
  8
1
  6
DASHDOT
 62
     3
100
AcDbCircle
 10
21.99053839660789
 20
0.0
 30
0.0
 40
35.00000000000027
100
AcDbArc
 50
219.965605731538
 51
230.0343942684623
  0
ARC
  5
B5
330
F8
100
AcDbEntity
  8
1
  6
DASHDOT
 62
     3
100
AcDbCircle
 10
21.99053839660789
 20
0.0
 30
0.0
 40
35.00000000000016
100
AcDbArc
 50
309.9656057315381
 51
320.0343942684618
  0
ARC
  5
B6
330
F8
100
AcDbEntity
  8
1
  6
DASHDOT
 62
     3
100
AcDbCircle
 10
21.99053839660789
 20
0.0
 30
0.0
 40
35.0
100
AcDbArc
 50
39.96560573153801
 51
50.03439426846215
  0
ARC
  5
B7
330
F8
100
AcDbEntity
  8
1
 62
     7
100
AcDbCircle
 10
-145.3330050057855
 20
-4.23496231131986
 30
0.0
 40
0.5500000000000016
100
AcDbArc
 50
270.0
 51
90.0
  0
ARC
  5
B8
330
F8
100
AcDbEntity
  8
1
 62
     7
100
AcDbCircle
 10
-147.4330050057855
 20
-4.23496231131986
 30
0.0
 40
0.5499999999999991
100
AcDbArc
 50
90.0
 51
270.0
  0
ARC
  5
B9
330
F8
100
AcDbEntity
  8
1
 62
     7
100
AcDbCircle
 10
-146.3830050057854
 20
0.0999999999999996
 30
0.0
 40
3.89999999999996
100
AcDbArc
 50
315.8057962770708
 51
224.1942037229287
  0
CIRCLE
  5
BA
330
F8
100
AcDbEntity
  8
1
 62
     7
100
AcDbCircle
 10
-67.70946160339214
 20
0.0
 30
0.0
 40
2.75
  0
CIRCLE
  5
BB
330
F8
100
AcDbEntity
  8
1
 62
     7
100
AcDbCircle
 10
-131.66057314145
 20
-8.500000000000012
 30
0.0
 40
2.599999999999992
  0
CIRCLE
  5
BC
330
F8
100
AcDbEntity
  8
1
 62
     7
100
AcDbCircle
 10
-131.66057314145
 20
-8.500000000000012
 30
0.0
 40
2.899999999999975
  0
CIRCLE
  5
BD
330
F8
100
AcDbEntity
  8
1
 62
     7
100
AcDbCircle
 10
-161.105436870121
 20
-8.499999999999987
 30
0.0
 40
2.599999999999992
  0
CIRCLE
  5
BE
330
F8
100
AcDbEntity
  8
1
 62
     7
100
AcDbCircle
 10
-161.105436870121
 20
-8.499999999999987
 30
0.0
 40
2.900000000000006
  0
CIRCLE
  5
BF
330
F8
100
AcDbEntity
  8
1
 62
     7
100
AcDbCircle
 10
-146.3830050057854
 20
17.0
 30
0.0
 40
2.599999999999992
  0
CIRCLE
  5
C0
330
F8
100
AcDbEntity
  8
1
 62
     7
100
AcDbCircle
 10
-146.3830050057854
 20
17.0
 30
0.0
 40
2.900000000000006
  0
CIRCLE
  5
C1
330
F8
100
AcDbEntity
  8
1
 62
     7
100
AcDbCircle
 10
-146.3830050057854
 20
0.0
 30
0.0
 40
3.0
  0
CIRCLE
  5
C2
330
F8
100
AcDbEntity
  8
1
 62
     7
100
AcDbCircle
 10
-146.3830050057854
 20
0.0
 30
0.0
 40
11.0
  0
CIRCLE
  5
C3
330
F8
100
AcDbEntity
  8
1
 62
     7
100
AcDbCircle
 10
-121.6342676642564
 20
24.74873734152919
 30
0.0
 40
2.199999999999902
  0
CIRCLE
  5
C4
330
F8
100
AcDbEntity
  8
1
 62
     7
100
AcDbCircle
 10
-121.6342676642563
 20
-24.7487373415293
 30
0.0
 40
2.200000000000001
  0
CIRCLE
  5
C5
330
F8
100
AcDbEntity
  8
1
 62
     7
100
AcDbCircle
 10
-171.1317423473148
 20
-24.7487373415293
 30
0.0
 40
2.199999999999988
  0
CIRCLE
  5
C6
330
F8
100
AcDbEntity
  8
1
 62
     7
100
AcDbCircle
 10
-171.1317423473148
 20
24.74873734152919
 30
0.0
 40
2.199999999999902
  0
CIRCLE
  5
C7
330
F8
100
AcDbEntity
  8
1
 62
     7
100
AcDbCircle
 10
21.99053839660789
 20
0.0
 30
0.0
 40
24.00000000000002
  0
CIRCLE
  5
C8
330
F8
100
AcDbEntity
  8
1
 62
     7
100
AcDbCircle
 10
21.99053839660789
 20
0.0
 30
0.0
 40
12.00000000000001
  0
CIRCLE
  5
C9
330
F8
100
AcDbEntity
  8
1
 62
     7
100
AcDbCircle
 10
21.99053839660789
 20
0.0
 30
0.0
 40
3.00000000000002
  0
CIRCLE
  5
CA
330
F8
100
AcDbEntity
  8
1
 62
     7
100
AcDbCircle
 10
21.99053839660789
 20
0.0
 30
0.0
 40
28.00000000000002
  0
CIRCLE
  5
CB
330
F8
100
AcDbEntity
  8
1
 62
     7
100
AcDbCircle
 10
-2.758198944921388
 20
24.74873734152919
 30
0.0
 40
2.2000000000001
  0
CIRCLE
  5
CC
330
F8
100
AcDbEntity
  8
1
 62
     7
100
AcDbCircle
 10
-2.758198944921388
 20
-24.7487373415293
 30
0.0
 40
2.2000000000001
  0
CIRCLE
  5
CD
330
F8
100
AcDbEntity
  8
1
 62
     7
100
AcDbCircle
 10
46.73927573813711
 20
-24.7487373415293
 30
0.0
 40
2.2000000000001
  0
CIRCLE
  5
CE
330
F8
100
AcDbEntity
  8
1
 62
     7
100
AcDbCircle
 10
46.73927573813697
 20
24.74873734152919
 30
0.0
 40
2.200000000000095
  0
CIRCLE
  5
CF
330
F8
100
AcDbEntity
  8
1
 62
     7
100
AcDbCircle
 10
-146.3830050057854
 20
0.0
 30
0.0
 40
6.0
  0
TEXT
  5
D1
330
F8
100
AcDbEntity
  8
1
 62
     7
100
AcDbText
 10
-174.2226359794929
 20
50.00861942070599
 30
0.0
 40
3.5
  1
PHT 0.5S
 41
0.9
  7
SIMPLEX
 72
     1
 11
-163.4226359794929
 21
50.00861942070599
 31
0.0
100
AcDbText
  0
ENDSEC
  0
SECTION
  2
OBJECTS
  0
DICTIONARY
  5
E4
330
0
100
AcDbDictionary
281
     1
  3
ACAD_COLOR
350
F3
  3
ACAD_GROUP
350
E5
  3
ACAD_LAYOUT
350
F1
  3
ACAD_MATERIAL
350
F2
  3
ACAD_MLINESTYLE
350
EE
  3
ACAD_PLOTSETTINGS
350
F0
  3
ACAD_PLOTSTYLENAME
350
E6
  0
DICTIONARY
  5
F3
102
{ACAD_REACTORS
330
E4
102
}
330
E4
100
AcDbDictionary
281
     1
  0
DICTIONARY
  5
E5
102
{ACAD_REACTORS
330
E4
102
}
330
E4
100
AcDbDictionary
281
     1
  0
DICTIONARY
  5
F1
102
{ACAD_REACTORS
330
E4
102
}
330
E4
100
AcDbDictionary
281
     1
  3
Layout1
350
F7
  3
Model
350
FB
  0
DICTIONARY
  5
F2
102
{ACAD_REACTORS
330
E4
102
}
330
E4
100
AcDbDictionary
281
     1
  0
DICTIONARY
  5
EE
102
{ACAD_REACTORS
330
E4
102
}
330
E4
100
AcDbDictionary
281
     1
  3
Standard
350
EF
  0
DICTIONARY
  5
F0
102
{ACAD_REACTORS
330
E4
102
}
330
E4
100
AcDbDictionary
281
     1
  0
ACDBDICTIONARYWDFLT
  5
E6
102
{ACAD_REACTORS
330
E4
102
}
330
E4
100
AcDbDictionary
281
     1
  3
Normal
350
E7
100
AcDbDictionaryWithDefault
340
E7
  0
LAYOUT
  5
F7
102
{ACAD_REACTORS
330
F1
102
}
330
F1
100
AcDbPlotSettings
  1

  2
\\Ogura1\HP Color LaserJet 4600 PCL 5c
  4

  6

 40
0.0
 41
0.0
 42
0.0
 43
0.0
 44
0.0
 45
0.0
 46
0.0
 47
0.0
 48
0.0
 49
0.0
140
0.0
141
0.0
142
1.0
143
1.0
 70
   688
 72
     0
 73
     0
 74
     5
  7

 75
    16
147
1.0
 76
     0
 77
     2
 78
   300
148
0.0
149
0.0
100
AcDbLayout
  1
Layout1
 70
     1
 71
     1
 10
0.0
 20
0.0
 11
12.0
 21
9.0
 12
0.0
 22
0.0
 32
0.0
 14
1.000000000000000E+20
 24
1.000000000000000E+20
 34
1.000000000000000E+20
 15
-1.000000000000000E+20
 25
-1.000000000000000E+20
 35
-1.000000000000000E+20
146
0.0
 13
0.0
 23
0.0
 33
0.0
 16
1.0
 26
0.0
 36
0.0
 17
0.0
 27
1.0
 37
0.0
 76
     0
330
F4
  0
LAYOUT
  5
FB
102
{ACAD_REACTORS
330
F1
102
}
330
F1
100
AcDbPlotSettings
  1

  2
\\Ogura1\HP Color LaserJet 4600 PCL 5c
  4

  6

 40
0.0
 41
0.0
 42
0.0
 43
0.0
 44
0.0
 45
0.0
 46
0.0
 47
0.0
 48
0.0
 49
0.0
140
0.0
141
0.0
142
1.0
143
1.0
 70
  1712
 72
     0
 73
     0
 74
     0
  7

 75
     0
147
1.0
 76
     0
 77
     2
 78
   300
148
0.0
149
0.0
100
AcDbLayout
  1
Model
 70
     1
 71
     0
 10
0.0
 20
0.0
 11
12.0
 21
9.0
 12
0.0
 22
0.0
 32
0.0
 14
0.0
 24
0.0
 34
0.0
 15
0.0
 25
0.0
 35
0.0
146
0.0
 13
0.0
 23
0.0
 33
0.0
 16
1.0
 26
0.0
 36
0.0
 17
0.0
 27
1.0
 37
0.0
 76
     0
330
F8
  0
MLINESTYLE
  5
EF
102
{ACAD_REACTORS
330
EE
102
}
330
EE
100
AcDbMlineStyle
  2
STANDARD
 70
     0
  3

 62
   256
 51
90.0
 52
90.0
 71
     2
 49
0.5
 62
   256
  6
BYLAYER
 49
-0.5
 62
   256
  6
BYLAYER
  0
ACDBPLACEHOLDER
  5
E7
102
{ACAD_REACTORS
330
E6
102
}
330
E6
  0
ENDSEC
  0
EOF
