  0
SECTION
  2
HEADER
  9
$ACADVER
  1
AC1018
  9
$ACADMAINTVER
 70
     0
  9
$DWGCODEPAGE
  3
ANSI_932
  9
$INSBASE
 10
0.0
 20
0.0
 30
0.0
  9
$EXTMIN
 10
-16.62717778443937
 20
-39.25442097326169
 30
-0.0015258207003583
  9
$EXTMAX
 10
226.7869613469949
 20
105.6319265948611
 30
0.0000000349246037
  9
$LIMMIN
 10
-16.61975039449765
 20
-39.25
  9
$LIMMAX
 10
226.779532823637
 20
105.6275049469609
  9
$ORTHOMODE
 70
     0
  9
$REGENMODE
 70
     1
  9
$FILLMODE
 70
     1
  9
$QTEXTMODE
 70
     0
  9
$MIRRTEXT
 70
     1
  9
$LTSCALE
 40
1.0
  9
$ATTMODE
 70
     1
  9
$TEXTSIZE
 40
3.5
  9
$TRACEWID
 40
0.5
  9
$TEXTSTYLE
  7
STANDARD
  9
$CLAYER
  8
0
  9
$CELTYPE
  6
ByLayer
  9
$CECOLOR
 62
   256
  9
$CELTSCALE
 40
1.0
  9
$DISPSILH
 70
     0
  9
$DIMSCALE
 40
1.0
  9
$DIMASZ
 40
0.18
  9
$DIMEXO
 40
0.0625
  9
$DIMDLI
 40
0.38
  9
$DIMRND
 40
0.0
  9
$DIMDLE
 40
0.0
  9
$DIMEXE
 40
0.18
  9
$DIMTP
 40
0.0
  9
$DIMTM
 40
0.0
  9
$DIMTXT
 40
0.18
  9
$DIMCEN
 40
0.09
  9
$DIMTSZ
 40
0.0
  9
$DIMTOL
 70
     0
  9
$DIMLIM
 70
     0
  9
$DIMTIH
 70
     1
  9
$DIMTOH
 70
     1
  9
$DIMSE1
 70
     0
  9
$DIMSE2
 70
     0
  9
$DIMTAD
 70
     0
  9
$DIMZIN
 70
     0
  9
$DIMBLK
  1

  9
$DIMASO
 70
     1
  9
$DIMSHO
 70
     1
  9
$DIMPOST
  1

  9
$DIMAPOST
  1

  9
$DIMALT
 70
     0
  9
$DIMALTD
 70
     2
  9
$DIMALTF
 40
25.4
  9
$DIMLFAC
 40
1.0
  9
$DIMTOFL
 70
     0
  9
$DIMTVP
 40
0.0
  9
$DIMTIX
 70
     0
  9
$DIMSOXD
 70
     0
  9
$DIMSAH
 70
     0
  9
$DIMBLK1
  1

  9
$DIMBLK2
  1

  9
$DIMSTYLE
  2
STANDARD
  9
$DIMCLRD
 70
     0
  9
$DIMCLRE
 70
     0
  9
$DIMCLRT
 70
     0
  9
$DIMTFAC
 40
1.0
  9
$DIMGAP
 40
0.09
  9
$DIMJUST
 70
     0
  9
$DIMSD1
 70
     0
  9
$DIMSD2
 70
     0
  9
$DIMTOLJ
 70
     1
  9
$DIMTZIN
 70
     0
  9
$DIMALTZ
 70
     0
  9
$DIMALTTZ
 70
     0
  9
$DIMUPT
 70
     0
  9
$DIMDEC
 70
     4
  9
$DIMTDEC
 70
     4
  9
$DIMALTU
 70
     2
  9
$DIMALTTD
 70
     2
  9
$DIMTXSTY
  7
STANDARD
  9
$DIMAUNIT
 70
     0
  9
$DIMADEC
 70
     0
  9
$DIMALTRND
 40
0.0
  9
$DIMAZIN
 70
     0
  9
$DIMDSEP
 70
    46
  9
$DIMATFIT
 70
     3
  9
$DIMFRAC
 70
     0
  9
$DIMLDRBLK
  1

  9
$DIMLUNIT
 70
     2
  9
$DIMLWD
 70
    -2
  9
$DIMLWE
 70
    -2
  9
$DIMTMOVE
 70
     0
  9
$LUNITS
 70
     2
  9
$LUPREC
 70
     4
  9
$SKETCHINC
 40
0.1
  9
$FILLETRAD
 40
2.0
  9
$AUNITS
 70
     0
  9
$AUPREC
 70
     0
  9
$MENU
  1
ACAD
  9
$ELEVATION
 40
0.0
  9
$PELEVATION
 40
0.0
  9
$THICKNESS
 40
0.0
  9
$LIMCHECK
 70
     0
  9
$CHAMFERA
 40
0.0
  9
$CHAMFERB
 40
0.0
  9
$CHAMFERC
 40
0.0
  9
$CHAMFERD
 40
0.0
  9
$SKPOLY
 70
     0
  9
$TDCREATE
 40
2452095.340876158
  9
$TDUCREATE
 40
2452095.507542824
  9
$TDUPDATE
 40
2453209.448579699
  9
$TDUUPDATE
 40
2453209.615246366
  9
$TDINDWG
 40
0.0004808218
  9
$TDUSRTIMER
 40
0.0004808218
  9
$USRTIMER
 70
     1
  9
$ANGBASE
 50
0.0
  9
$ANGDIR
 70
     0
  9
$PDMODE
 70
     0
  9
$PDSIZE
 40
0.0
  9
$PLINEWID
 40
0.0
  9
$SPLFRAME
 70
     0
  9
$SPLINETYPE
 70
     6
  9
$SPLINESEGS
 70
     8
  9
$HANDSEED
  5
F6
  9
$SURFTAB1
 70
     6
  9
$SURFTAB2
 70
     6
  9
$SURFTYPE
 70
     6
  9
$SURFU
 70
     6
  9
$SURFV
 70
     6
  9
$UCSBASE
  2

  9
$UCSNAME
  2

  9
$UCSORG
 10
0.0
 20
0.0
 30
0.0
  9
$UCSXDIR
 10
1.0
 20
0.0
 30
0.0
  9
$UCSYDIR
 10
0.0
 20
1.0
 30
0.0
  9
$UCSORTHOREF
  2

  9
$UCSORTHOVIEW
 70
     0
  9
$UCSORGTOP
 10
0.0
 20
0.0
 30
0.0
  9
$UCSORGBOTTOM
 10
0.0
 20
0.0
 30
0.0
  9
$UCSORGLEFT
 10
0.0
 20
0.0
 30
0.0
  9
$UCSORGRIGHT
 10
0.0
 20
0.0
 30
0.0
  9
$UCSORGFRONT
 10
0.0
 20
0.0
 30
0.0
  9
$UCSORGBACK
 10
0.0
 20
0.0
 30
0.0
  9
$PUCSBASE
  2

  9
$PUCSNAME
  2

  9
$PUCSORG
 10
0.0
 20
0.0
 30
0.0
  9
$PUCSXDIR
 10
1.0
 20
0.0
 30
0.0
  9
$PUCSYDIR
 10
0.0
 20
1.0
 30
0.0
  9
$PUCSORTHOREF
  2

  9
$PUCSORTHOVIEW
 70
     0
  9
$PUCSORGTOP
 10
0.0
 20
0.0
 30
0.0
  9
$PUCSORGBOTTOM
 10
0.0
 20
0.0
 30
0.0
  9
$PUCSORGLEFT
 10
0.0
 20
0.0
 30
0.0
  9
$PUCSORGRIGHT
 10
0.0
 20
0.0
 30
0.0
  9
$PUCSORGFRONT
 10
0.0
 20
0.0
 30
0.0
  9
$PUCSORGBACK
 10
0.0
 20
0.0
 30
0.0
  9
$USERI1
 70
     0
  9
$USERI2
 70
     0
  9
$USERI3
 70
     0
  9
$USERI4
 70
     0
  9
$USERI5
 70
     0
  9
$USERR1
 40
0.0
  9
$USERR2
 40
0.0
  9
$USERR3
 40
0.0
  9
$USERR4
 40
0.0
  9
$USERR5
 40
0.0
  9
$WORLDVIEW
 70
     1
  9
$SHADEDGE
 70
     3
  9
$SHADEDIF
 70
    70
  9
$TILEMODE
 70
     1
  9
$MAXACTVP
 70
    64
  9
$PINSBASE
 10
0.0
 20
0.0
 30
0.0
  9
$PLIMCHECK
 70
     0
  9
$PEXTMIN
 10
1.000000000000000E+20
 20
1.000000000000000E+20
 30
1.000000000000000E+20
  9
$PEXTMAX
 10
-1.000000000000000E+20
 20
-1.000000000000000E+20
 30
-1.000000000000000E+20
  9
$PLIMMIN
 10
0.0
 20
0.0
  9
$PLIMMAX
 10
12.0
 20
9.0
  9
$UNITMODE
 70
     0
  9
$VISRETAIN
 70
     1
  9
$PLINEGEN
 70
     0
  9
$PSLTSCALE
 70
     1
  9
$TREEDEPTH
 70
  3020
  9
$CMLSTYLE
  2
Standard
  9
$CMLJUST
 70
     0
  9
$CMLSCALE
 40
1.0
  9
$PROXYGRAPHICS
 70
     1
  9
$MEASUREMENT
 70
     0
  9
$CELWEIGHT
370
    -1
  9
$ENDCAPS
280
     0
  9
$JOINSTYLE
280
     0
  9
$LWDISPLAY
290
     0
  9
$INSUNITS
 70
     0
  9
$HYPERLINKBASE
  1

  9
$STYLESHEET
  1

  9
$XEDIT
290
     1
  9
$CEPSNTYPE
380
     0
  9
$PSTYLEMODE
290
     1
  9
$FINGERPRINTGUID
  2
{4794701F-9411-40B3-ABB4-FEA3D5692F43}
  9
$VERSIONGUID
  2
{9E2BA327-CECA-4CB6-A612-0BAFA1DCAC05}
  9
$EXTNAMES
290
     1
  9
$PSVPSCALE
 40
0.0
  9
$OLESTARTUP
290
     0
  9
$SORTENTS
280
   127
  9
$INDEXCTL
280
     0
  9
$HIDETEXT
280
     0
  9
$XCLIPFRAME
290
     0
  9
$HALOGAP
280
     0
  9
$OBSCOLOR
 70
   257
  9
$OBSLTYPE
280
     0
  9
$INTERSECTIONDISPLAY
280
     0
  9
$INTERSECTIONCOLOR
 70
   257
  9
$DIMASSOC
280
     1
  9
$PROJECTNAME
  1

  0
ENDSEC
  0
SECTION
  2
CLASSES
  0
CLASS
  1
ACDBDICTIONARYWDFLT
  2
AcDbDictionaryWithDefault
  3
ObjectDBX Classes
 90
        0
 91
        1
280
     0
281
     0
  0
ENDSEC
  0
SECTION
  2
TABLES
  0
TABLE
  2
VPORT
  5
C3
330
0
100
AcDbSymbolTable
 70
     2
  0
VPORT
  5
F5
330
C3
100
AcDbSymbolTableRecord
100
AcDbViewportTableRecord
  2
*Active
 70
     0
 10
0.0
 20
0.0
 11
1.0
 21
1.0
 12
105.0798917812778
 22
33.18875281079971
 13
0.0
 23
0.0
 14
1.0
 24
1.0
 15
0.0
 25
0.0
 16
0.0
 26
0.0
 36
1.0
 17
0.0
 27
0.0
 37
0.0
 40
150.6250201695641
 41
1.625
 42
50.0
 43
0.0
 44
0.0
 50
0.0
 51
0.0
 71
     0
 72
   100
 73
     1
 74
     1
 75
     0
 76
     0
 77
     0
 78
     0
281
     0
 65
     1
110
0.0
120
0.0
130
0.0
111
1.0
121
0.0
131
0.0
112
0.0
122
1.0
132
0.0
 79
     0
146
0.0
  0
ENDTAB
  0
TABLE
  2
LTYPE
  5
C0
330
0
100
AcDbSymbolTable
 70
     9
  0
LTYPE
  5
CE
330
C0
100
AcDbSymbolTableRecord
100
AcDbLinetypeTableRecord
  2
ByBlock
 70
     0
  3

 72
    65
 73
     0
 40
0.0
  0
LTYPE
  5
CF
330
C0
100
AcDbSymbolTableRecord
100
AcDbLinetypeTableRecord
  2
ByLayer
 70
     0
  3

 72
    65
 73
     0
 40
0.0
  0
LTYPE
  5
D0
330
C0
100
AcDbSymbolTableRecord
100
AcDbLinetypeTableRecord
  2
CONTINUOUS
 70
     0
  3
Solid line
 72
    65
 73
     0
 40
0.0
  0
LTYPE
  5
E0
330
C0
100
AcDbSymbolTableRecord
100
AcDbLinetypeTableRecord
  2
BORDER
 70
     0
  3
__ __ . __ __ .
 72
    65
 73
     6
 40
11.20917751662462
 49
3.202622147607034
 74
     0
 49
-1.601311073803517
 74
     0
 49
3.202622147607034
 74
     0
 49
-1.601311073803517
 74
     0
 49
0.0
 74
     0
 49
-1.601311073803517
 74
     0
  0
LTYPE
  5
E1
330
C0
100
AcDbSymbolTableRecord
100
AcDbLinetypeTableRecord
  2
CENTER
 70
     0
  3
____ _ ____ _
 72
    65
 73
     4
 40
12.81048859042813
 49
8.006555369017586
 74
     0
 49
-1.601311073803517
 74
     0
 49
1.601311073803517
 74
     0
 49
-1.601311073803517
 74
     0
  0
LTYPE
  5
E2
330
C0
100
AcDbSymbolTableRecord
100
AcDbLinetypeTableRecord
  2
DASHDOT
 70
     0
  3
__ . __ . __ .
 72
    65
 73
     4
 40
6.405244295214068
 49
3.202622147607034
 74
     0
 49
-1.601311073803517
 74
     0
 49
0.0
 74
     0
 49
-1.601311073803517
 74
     0
  0
LTYPE
  5
E3
330
C0
100
AcDbSymbolTableRecord
100
AcDbLinetypeTableRecord
  2
DASHED
 70
     0
  3
__ __ __ __ __
 72
    65
 73
     2
 40
4.803933221410551
 49
3.202622147607034
 74
     0
 49
-1.601311073803517
 74
     0
  0
LTYPE
  5
E4
330
C0
100
AcDbSymbolTableRecord
100
AcDbLinetypeTableRecord
  2
DIVIDE
 70
     0
  3
__ . . __ . . 
 72
    65
 73
     6
 40
8.006555369017586
 49
3.202622147607034
 74
     0
 49
-1.601311073803517
 74
     0
 49
0.0
 74
     0
 49
-1.601311073803517
 74
     0
 49
0.0
 74
     0
 49
-1.601311073803517
 74
     0
  0
LTYPE
  5
E5
330
C0
100
AcDbSymbolTableRecord
100
AcDbLinetypeTableRecord
  2
DOT
 70
     0
  3
..............
 72
    65
 73
     4
 40
3.202622147607034
 49
0.0
 74
     0
 49
-1.601311073803517
 74
     0
 49
0.0
 74
     0
 49
-1.601311073803517
 74
     0
  0
LTYPE
  5
E6
330
C0
100
AcDbSymbolTableRecord
100
AcDbLinetypeTableRecord
  2
HIDDEN
 70
     0
  3
_ _ _ _ _ _ _
 72
    65
 73
     2
 40
2.401966610705275
 49
1.601311073803517
 74
     0
 49
-0.8006555369017586
 74
     0
  0
LTYPE
  5
E7
330
C0
100
AcDbSymbolTableRecord
100
AcDbLinetypeTableRecord
  2
PHANTOM
 70
     0
  3
_____ _ _ _____ _ _ 
 72
    65
 73
     6
 40
16.01311073803517
 49
8.006555369017586
 74
     0
 49
-1.601311073803517
 74
     0
 49
1.601311073803517
 74
     0
 49
-1.601311073803517
 74
     0
 49
1.601311073803517
 74
     0
 49
-1.601311073803517
 74
     0
  0
ENDTAB
  0
TABLE
  2
LAYER
  5
BD
330
0
100
AcDbSymbolTable
 70
     2
  0
LAYER
  5
CB
330
BD
100
AcDbSymbolTableRecord
100
AcDbLayerTableRecord
  2
0
 70
     0
 62
     7
  6
CONTINUOUS
370
    -3
390
CA
  0
LAYER
  5
E8
330
BD
100
AcDbSymbolTableRecord
100
AcDbLayerTableRecord
  2
1
 70
     0
 62
     7
  6
CONTINUOUS
370
    -3
390
CA
  0
ENDTAB
  0
TABLE
  2
STYLE
  5
BE
330
0
100
AcDbSymbolTable
 70
     4
  0
STYLE
  5
CC
330
BE
100
AcDbSymbolTableRecord
100
AcDbTextStyleTableRecord
  2
STANDARD
 70
     0
 40
0.0
 41
1.0
 50
0.0
 71
     0
 42
3.5
  3
txt
  4

  0
STYLE
  5
E9
330
BE
100
AcDbSymbolTableRecord
100
AcDbTextStyleTableRecord
  2
SIMPLEX
 70
     0
 40
0.0
 41
1.0
 50
0.0
 71
     0
 42
3.5
  3
simplex
  4

  0
STYLE
  5
EA
330
BE
100
AcDbSymbolTableRecord
100
AcDbTextStyleTableRecord
  2
COMPLEX
 70
     0
 40
0.0
 41
1.0
 50
0.0
 71
     0
 42
3.5
  3
complex
  4

  0
STYLE
  5
EB
330
BE
100
AcDbSymbolTableRecord
100
AcDbTextStyleTableRecord
  2
ITALIC
 70
     0
 40
0.0
 41
1.0
 50
0.0
 71
     0
 42
3.5
  3
italic
  4

  0
ENDTAB
  0
TABLE
  2
VIEW
  5
C1
330
0
100
AcDbSymbolTable
 70
     0
  0
ENDTAB
  0
TABLE
  2
UCS
  5
C2
330
0
100
AcDbSymbolTable
 70
     0
  0
ENDTAB
  0
TABLE
  2
APPID
  5
C4
330
0
100
AcDbSymbolTable
 70
     1
  0
APPID
  5
CD
330
C4
100
AcDbSymbolTableRecord
100
AcDbRegAppTableRecord
  2
ACAD
 70
     0
  0
ENDTAB
  0
TABLE
  2
DIMSTYLE
  5
C5
330
0
100
AcDbSymbolTable
 70
     1
100
AcDbDimStyleTable
 71
     0
  0
DIMSTYLE
105
EC
330
C5
100
AcDbSymbolTableRecord
100
AcDbDimStyleTableRecord
  2
STANDARD
 70
     0
279
     2
340
CC
  0
ENDTAB
  0
TABLE
  2
BLOCK_RECORD
  5
BC
330
0
100
AcDbSymbolTable
 70
     2
  0
BLOCK_RECORD
  5
DB
330
BC
100
AcDbSymbolTableRecord
100
AcDbBlockTableRecord
  2
*Model_Space
340
DE
  0
BLOCK_RECORD
  5
D7
330
BC
100
AcDbSymbolTableRecord
100
AcDbBlockTableRecord
  2
*Paper_Space
340
DA
  0
BLOCK_RECORD
  5
F1
330
BC
100
AcDbSymbolTableRecord
100
AcDbBlockTableRecord
  2
$MODEL_SPACE
340
0
  0
BLOCK_RECORD
  5
F3
330
BC
100
AcDbSymbolTableRecord
100
AcDbBlockTableRecord
  2
$PAPER_SPACE
340
0
  0
ENDTAB
  0
ENDSEC
  0
SECTION
  2
BLOCKS
  0
BLOCK
  5
DC
330
DB
100
AcDbEntity
  8
0
100
AcDbBlockBegin
  2
*Model_Space
 70
     0
 10
0.0
 20
0.0
 30
0.0
  3
*Model_Space
  1

  0
ENDBLK
  5
DD
330
DB
100
AcDbEntity
  8
0
100
AcDbBlockEnd
  0
BLOCK
  5
D8
330
D7
100
AcDbEntity
 67
     1
  8
0
100
AcDbBlockBegin
  2
*Paper_Space
 70
     0
 10
0.0
 20
0.0
 30
0.0
  3
*Paper_Space
  1

  0
ENDBLK
  5
D9
330
D7
100
AcDbEntity
 67
     1
  8
0
100
AcDbBlockEnd
  0
BLOCK
  5
F2
330
F1
100
AcDbEntity
  8
0
100
AcDbBlockBegin
  2
$MODEL_SPACE
 70
     0
 10
0.0
 20
0.0
 30
0.0
  3
$MODEL_SPACE
  1

  0
ENDBLK
  5
20
330
F1
100
AcDbEntity
  8
0
100
AcDbBlockEnd
  0
BLOCK
  5
F4
330
F3
100
AcDbEntity
  8
0
100
AcDbBlockBegin
  2
$PAPER_SPACE
 70
     0
 10
0.0
 20
0.0
 30
0.0
  3
$PAPER_SPACE
  1

  0
ENDBLK
  5
1C
330
F3
100
AcDbEntity
  8
0
100
AcDbBlockEnd
  0
ENDSEC
  0
SECTION
  2
ENTITIES
  0
LINE
  5
33
330
DB
100
AcDbEntity
  8
1
 62
     7
100
AcDbLine
 10
33.1933588761175
 20
48.0
 30
0.0
 11
27.39335887611749
 21
48.0
 31
0.0
  0
LINE
  5
34
330
DB
100
AcDbEntity
  8
1
 62
     7
100
AcDbLine
 10
33.1933588761175
 20
72.0
 30
0.0
 11
33.1933588761175
 21
47.027
 31
0.0
  0
LINE
  5
35
330
DB
100
AcDbEntity
  8
1
 62
     7
100
AcDbLine
 10
29.4933588761175
 20
72.0
 30
0.0
 11
33.1933588761175
 21
72.0
 31
0.0
  0
LINE
  5
36
330
DB
100
AcDbEntity
  8
1
 62
     7
100
AcDbLine
 10
29.4933588761175
 20
73.0
 30
0.0
 11
29.4933588761175
 21
47.027
 31
0.0
  0
LINE
  5
37
330
DB
100
AcDbEntity
  8
1
 62
     7
100
AcDbLine
 10
11.3933588761175
 20
51.0
 30
0.0
 11
9.393358876117501
 21
51.0
 31
0.0
  0
LINE
  5
38
330
DB
100
AcDbEntity
  8
1
 62
     7
100
AcDbLine
 10
11.3933588761175
 20
52.5
 30
0.0
 11
11.3933588761175
 21
20.0
 31
0.0
  0
LINE
  5
39
330
DB
100
AcDbEntity
  8
1
 62
     7
100
AcDbLine
 10
11.3933588761175
 20
47.0
 30
0.0
 11
13.3933588761175
 21
47.0
 31
0.0
  0
LINE
  5
3A
330
DB
100
AcDbEntity
  8
1
 62
     7
100
AcDbLine
 10
13.3933588761175
 20
52.5
 30
0.0
 11
11.3933588761175
 21
52.5
 31
0.0
  0
LINE
  5
3B
330
DB
100
AcDbEntity
  8
1
 62
     7
100
AcDbLine
 10
9.393358876117501
 20
79.0
 30
0.0
 11
9.393358876117501
 21
20.0
 31
0.0
  0
LINE
  5
3C
330
DB
100
AcDbEntity
  8
1
 62
     7
100
AcDbLine
 10
15.39335887611749
 20
73.0
 30
0.0
 11
15.39335887611749
 21
79.0
 31
0.0
  0
LINE
  5
3D
330
DB
100
AcDbEntity
  8
1
 62
     7
100
AcDbLine
 10
60.39335887611749
 20
37.5
 30
0.0
 11
60.39335887611749
 21
52.5
 31
0.0
  0
LINE
  5
3E
330
DB
100
AcDbEntity
  8
1
 62
     7
100
AcDbLine
 10
60.39335887611749
 20
51.0
 30
0.0
 11
46.39335887611749
 21
51.0
 31
0.0
  0
LINE
  5
3F
330
DB
100
AcDbEntity
  8
1
 62
     7
100
AcDbLine
 10
55.52682876107017
 20
40.8075
 30
0.0
 11
60.39335887611749
 21
40.8075
 31
0.0
  0
LINE
  5
40
330
DB
100
AcDbEntity
  8
1
 62
     7
100
AcDbLine
 10
55.52682876107017
 20
47.6925
 30
0.0
 11
60.39335887611749
 21
47.6925
 31
0.0
  0
LINE
  5
41
330
DB
100
AcDbEntity
  8
1
 62
     7
100
AcDbLine
 10
58.91835887611749
 20
48.519375
 30
0.0
 11
58.91835887611749
 21
39.98062500000001
 31
0.0
  0
LINE
  5
42
330
DB
100
AcDbEntity
  8
1
 62
     7
100
AcDbLine
 10
47.8683588761175
 20
48.519375
 30
0.0
 11
47.8683588761175
 21
39.98062500000001
 31
0.0
  0
LINE
  5
43
330
DB
100
AcDbEntity
  8
1
 62
     7
100
AcDbLine
 10
51.25988899116482
 20
47.6925
 30
0.0
 11
46.39335887611749
 21
47.6925
 31
0.0
  0
LINE
  5
44
330
DB
100
AcDbEntity
  8
1
 62
     7
100
AcDbLine
 10
51.25988899116482
 20
40.8075
 30
0.0
 11
46.39335887611749
 21
40.8075
 31
0.0
  0
LINE
  5
45
330
DB
100
AcDbEntity
  8
1
 62
     7
100
AcDbLine
 10
46.39335887611749
 20
37.5
 30
0.0
 11
46.39335887611749
 21
51.0
 31
0.0
  0
LINE
  5
46
330
DB
100
AcDbEntity
  8
1
 62
     7
100
AcDbLine
 10
13.3933588761175
 20
52.5
 30
0.0
 11
13.3933588761175
 21
20.0
 31
0.0
  0
LINE
  5
47
330
DB
100
AcDbEntity
  8
1
 62
     7
100
AcDbLine
 10
27.39335887611749
 20
51.0
 30
0.0
 11
13.3933588761175
 21
51.0
 31
0.0
  0
LINE
  5
48
330
DB
100
AcDbEntity
  8
1
 62
     7
100
AcDbLine
 10
27.39335887611749
 20
37.5
 30
0.0
 11
27.39335887611749
 21
51.0
 31
0.0
  0
LINE
  5
49
330
DB
100
AcDbEntity
  8
1
 62
     7
100
AcDbLine
 10
14.8683588761175
 20
48.519375
 30
0.0
 11
14.8683588761175
 21
39.98062500000001
 31
0.0
  0
LINE
  5
4A
330
DB
100
AcDbEntity
  8
1
 62
     7
100
AcDbLine
 10
25.91835887611751
 20
48.519375
 30
0.0
 11
25.91835887611751
 21
39.98062500000001
 31
0.0
  0
LINE
  5
4B
330
DB
100
AcDbEntity
  8
1
 62
     7
100
AcDbLine
 10
22.52682876107019
 20
47.6925
 30
0.0
 11
27.39335887611749
 21
47.6925
 31
0.0
  0
LINE
  5
4C
330
DB
100
AcDbEntity
  8
1
 62
     7
100
AcDbLine
 10
18.25988899116482
 20
47.6925
 30
0.0
 11
13.3933588761175
 21
47.6925
 31
0.0
  0
LINE
  5
4D
330
DB
100
AcDbEntity
  8
1
 62
     7
100
AcDbLine
 10
22.52682876107019
 20
40.8075
 30
0.0
 11
27.39335887611749
 21
40.8075
 31
0.0
  0
LINE
  5
4E
330
DB
100
AcDbEntity
  8
1
 62
     7
100
AcDbLine
 10
18.25988899116482
 20
40.8075
 30
0.0
 11
13.3933588761175
 21
40.8075
 31
0.0
  0
LINE
  5
4F
330
DB
100
AcDbEntity
  8
1
 62
     7
100
AcDbLine
 10
39.8933588761175
 20
45.0
 30
0.0
 11
46.39335887611749
 21
45.0
 31
0.0
  0
LINE
  5
50
330
DB
100
AcDbEntity
  8
1
 62
     7
100
AcDbLine
 10
39.8933588761175
 20
72.0
 30
0.0
 11
39.8933588761175
 21
37.5
 31
0.0
  0
LINE
  5
51
330
DB
100
AcDbEntity
  8
1
 62
     7
100
AcDbLine
 10
33.8933588761175
 20
72.0
 30
0.0
 11
39.8933588761175
 21
72.0
 31
0.0
  0
LINE
  5
52
330
DB
100
AcDbEntity
  8
1
 62
     7
100
AcDbLine
 10
33.8933588761175
 20
37.5
 30
0.0
 11
33.8933588761175
 21
72.0
 31
0.0
  0
LINE
  5
53
330
DB
100
AcDbEntity
  8
1
 62
     7
100
AcDbLine
 10
27.39335887611749
 20
45.0
 30
0.0
 11
33.8933588761175
 21
45.0
 31
0.0
  0
LINE
  5
54
330
DB
100
AcDbEntity
  8
1
  6
DASHDOT
 62
     3
100
AcDbLine
 10
68.3933588761175
 20
25.0
 30
0.0
 11
68.3933588761175
 21
15.0
 31
0.0
  0
LINE
  5
55
330
DB
100
AcDbEntity
  8
1
  6
DASHDOT
 62
     3
100
AcDbLine
 10
68.3933588761175
 20
40.49999999999999
 30
0.0
 11
68.3933588761175
 21
27.3
 31
0.0
  0
LINE
  5
56
330
DB
100
AcDbEntity
  8
1
 62
     7
100
AcDbLine
 10
66.99335887611749
 20
30.3
 30
0.0
 11
66.99335887611749
 21
37.5
 31
0.0
  0
LINE
  5
57
330
DB
100
AcDbEntity
  8
1
 62
     7
100
AcDbLine
 10
69.79335887611751
 20
37.5
 30
0.0
 11
69.79335887611751
 21
30.3
 31
0.0
  0
LINE
  5
58
330
DB
100
AcDbEntity
  8
1
 62
     3
100
AcDbLine
 10
66.3933588761175
 20
30.3
 30
0.0
 11
66.3933588761175
 21
37.5
 31
0.0
  0
LINE
  5
59
330
DB
100
AcDbEntity
  8
1
 62
     3
100
AcDbLine
 10
70.3933588761175
 20
37.5
 30
0.0
 11
70.3933588761175
 21
30.3
 31
0.0
  0
LINE
  5
5A
330
DB
100
AcDbEntity
  8
1
 62
     7
100
AcDbLine
 10
74.39335887611751
 20
28.0
 30
0.0
 11
13.3933588761175
 21
28.0
 31
0.0
  0
LINE
  5
5B
330
DB
100
AcDbEntity
  8
1
 62
     7
100
AcDbLine
 10
74.39335887611751
 20
30.3
 30
0.0
 11
13.3933588761175
 21
30.3
 31
0.0
  0
LINE
  5
5C
330
DB
100
AcDbEntity
  8
1
 62
     7
100
AcDbLine
 10
74.39335887611751
 20
37.5
 30
0.0
 11
13.3933588761175
 21
37.5
 31
0.0
  0
LINE
  5
5D
330
DB
100
AcDbEntity
  8
1
 62
     7
100
AcDbLine
 10
74.39335887611751
 20
20.0
 30
0.0
 11
74.39335887611751
 21
37.5
 31
0.0
  0
LINE
  5
5E
330
DB
100
AcDbEntity
  8
1
 62
     7
100
AcDbLine
 10
15.39335887611749
 20
73.0
 30
0.0
 11
49.99335887611749
 21
73.0
 31
0.0
  0
LINE
  5
5F
330
DB
100
AcDbEntity
  8
1
 62
     7
100
AcDbLine
 10
9.393358876117501
 20
79.0
 30
0.0
 11
57.89335887611749
 21
79.0
 31
0.0
  0
LINE
  5
60
330
DB
100
AcDbEntity
  8
1
 62
     7
100
AcDbLine
 10
57.89335887611749
 20
79.0
 30
0.0
 11
57.89335887611749
 21
73.0
 31
0.0
  0
LINE
  5
61
330
DB
100
AcDbEntity
  8
1
 62
     7
100
AcDbLine
 10
40.59335887611751
 20
47.027
 30
0.0
 11
40.59335887611751
 21
72.0
 31
0.0
  0
LINE
  5
62
330
DB
100
AcDbEntity
  8
1
 62
     7
100
AcDbLine
 10
40.59335887611751
 20
72.0
 30
0.0
 11
44.29335887611751
 21
72.0
 31
0.0
  0
LINE
  5
63
330
DB
100
AcDbEntity
  8
1
 62
     7
100
AcDbLine
 10
46.39335887611749
 20
48.0
 30
0.0
 11
40.59335887611751
 21
48.0
 31
0.0
  0
LINE
  5
64
330
DB
100
AcDbEntity
  8
1
 62
     7
100
AcDbLine
 10
44.29335887611751
 20
47.027
 30
0.0
 11
44.29335887611751
 21
73.0
 31
0.0
  0
LINE
  5
65
330
DB
100
AcDbEntity
  8
1
 62
     7
100
AcDbLine
 10
58.39335887611749
 20
73.0
 30
0.0
 11
58.39335887611749
 21
79.25
 31
0.0
  0
LINE
  5
66
330
DB
100
AcDbEntity
  8
1
 62
     7
100
AcDbLine
 10
58.39335887611749
 20
79.25
 30
0.0
 11
64.39335887611751
 21
79.25
 31
0.0
  0
LINE
  5
67
330
DB
100
AcDbEntity
  8
1
 62
     7
100
AcDbLine
 10
64.39335887611751
 20
79.25
 30
0.0
 11
64.39335887611751
 21
37.5
 31
0.0
  0
LINE
  5
68
330
DB
100
AcDbEntity
  8
1
 62
     7
100
AcDbLine
 10
62.39335887611749
 20
52.5
 30
0.0
 11
60.39335887611749
 21
52.5
 31
0.0
  0
LINE
  5
69
330
DB
100
AcDbEntity
  8
1
 62
     7
100
AcDbLine
 10
60.39335887611749
 20
47.0
 30
0.0
 11
62.39335887611749
 21
47.0
 31
0.0
  0
LINE
  5
6A
330
DB
100
AcDbEntity
  8
1
 62
     7
100
AcDbLine
 10
62.39335887611749
 20
52.5
 30
0.0
 11
62.39335887611749
 21
37.5
 31
0.0
  0
LINE
  5
6B
330
DB
100
AcDbEntity
  8
1
 62
     7
100
AcDbLine
 10
62.39335887611749
 20
51.0
 30
0.0
 11
64.39335887611751
 21
51.0
 31
0.0
  0
LINE
  5
6C
330
DB
100
AcDbEntity
  8
1
 62
     7
100
AcDbLine
 10
55.39335887611749
 20
79.0
 30
0.0
 11
55.39335887611749
 21
75.0
 31
0.0
  0
LINE
  5
6D
330
DB
100
AcDbEntity
  8
1
 62
     7
100
AcDbLine
 10
55.39335887611749
 20
75.0
 30
0.0
 11
47.39335887611749
 21
75.0
 31
0.0
  0
LINE
  5
6E
330
DB
100
AcDbEntity
  8
1
 62
     7
100
AcDbLine
 10
47.39335887611749
 20
75.0
 30
0.0
 11
47.39335887611749
 21
79.0
 31
0.0
  0
LINE
  5
6F
330
DB
100
AcDbEntity
  8
1
 62
     7
100
AcDbLine
 10
53.64335887611749
 20
75.0
 30
0.0
 11
53.64335887611749
 21
73.0
 31
0.0
  0
LINE
  5
70
330
DB
100
AcDbEntity
  8
1
 62
     7
100
AcDbLine
 10
49.14335887611749
 20
75.0
 30
0.0
 11
49.14335887611749
 21
73.0
 31
0.0
  0
LINE
  5
71
330
DB
100
AcDbEntity
  8
1
  6
DASHDOT
 62
     3
100
AcDbLine
 10
51.3933588761175
 20
82.0
 30
0.0
 11
51.3933588761175
 21
59.99999999999997
 31
0.0
  0
LINE
  5
72
330
DB
100
AcDbEntity
  8
1
 62
     7
100
AcDbLine
 10
47.89335887611749
 20
75.00000000000003
 30
0.0
 11
47.89335887611753
 21
78.70000000000003
 31
0.0
  0
LINE
  5
73
330
DB
100
AcDbEntity
  8
1
 62
     7
100
AcDbLine
 10
47.89335887611753
 20
78.70000000000003
 30
0.0
 11
48.41297411838819
 21
79.00000000000003
 31
0.0
  0
LINE
  5
74
330
DB
100
AcDbEntity
  8
1
 62
     7
100
AcDbLine
 10
54.37374363384686
 20
78.99999999999998
 30
0.0
 11
54.89335887611753
 21
78.69999999999997
 31
0.0
  0
LINE
  5
75
330
DB
100
AcDbEntity
  8
1
 62
     7
100
AcDbLine
 10
54.89335887611753
 20
78.69999999999997
 30
0.0
 11
54.89335887611749
 21
74.99999999999997
 31
0.0
  0
LINE
  5
76
330
DB
100
AcDbEntity
  8
1
 62
     7
100
AcDbLine
 10
47.89335887611753
 20
78.70000000000003
 30
0.0
 11
54.89335887611753
 21
78.69999999999997
 31
0.0
  0
LINE
  5
77
330
DB
100
AcDbEntity
  8
1
 62
     7
100
AcDbLine
 10
49.3933588761175
 20
75.00000000000001
 30
0.0
 11
49.39335887611743
 21
63.60000000000002
 31
0.0
  0
LINE
  5
78
330
DB
100
AcDbEntity
  8
1
 62
     7
100
AcDbLine
 10
49.39335887611743
 20
63.60000000000002
 30
0.0
 11
49.99335887611742
 21
63.0
 31
0.0
  0
LINE
  5
79
330
DB
100
AcDbEntity
  8
1
 62
     7
100
AcDbLine
 10
49.99335887611742
 20
63.0
 30
0.0
 11
52.79335887611742
 21
62.99999999999999
 31
0.0
  0
LINE
  5
7A
330
DB
100
AcDbEntity
  8
1
 62
     7
100
AcDbLine
 10
52.79335887611742
 20
62.99999999999999
 30
0.0
 11
53.39335887611743
 21
63.59999999999999
 31
0.0
  0
LINE
  5
7B
330
DB
100
AcDbEntity
  8
1
 62
     7
100
AcDbLine
 10
53.39335887611743
 20
63.59999999999999
 30
0.0
 11
53.39335887611749
 21
74.99999999999999
 31
0.0
  0
LINE
  5
7C
330
DB
100
AcDbEntity
  8
1
 62
     7
100
AcDbLine
 10
49.39335887611743
 20
63.60000000000002
 30
0.0
 11
53.39335887611743
 21
63.59999999999999
 31
0.0
  0
LINE
  5
7D
330
DB
100
AcDbEntity
  8
1
 62
     3
100
AcDbLine
 10
49.99335887611742
 20
63.0
 30
0.0
 11
49.99335887611749
 21
73.46076951545869
 31
0.0
  0
LINE
  5
7E
330
DB
100
AcDbEntity
  8
1
 62
     3
100
AcDbLine
 10
49.99335887611749
 20
73.46076951545869
 30
0.0
 11
49.3933588761175
 21
74.50000000000001
 31
0.0
  0
LINE
  5
7F
330
DB
100
AcDbEntity
  8
1
 62
     3
100
AcDbLine
 10
52.79335887611742
 20
62.99999999999999
 30
0.0
 11
52.79335887611749
 21
73.46076951545867
 31
0.0
  0
LINE
  5
80
330
DB
100
AcDbEntity
  8
1
 62
     3
100
AcDbLine
 10
52.79335887611749
 20
73.46076951545867
 30
0.0
 11
53.39335887611749
 21
74.49999999999999
 31
0.0
  0
LINE
  5
81
330
DB
100
AcDbEntity
  8
1
 62
     3
100
AcDbLine
 10
49.3933588761175
 20
73.46076951545869
 30
0.0
 11
53.39335887611749
 21
73.46076951545867
 31
0.0
  0
LINE
  5
82
330
DB
100
AcDbEntity
  8
1
 62
     7
100
AcDbLine
 10
52.79335887611749
 20
73.0
 30
0.0
 11
58.39335887611749
 21
73.0
 31
0.0
  0
LINE
  5
83
330
DB
100
AcDbEntity
  8
1
 62
     7
100
AcDbLine
 10
57.89335887611749
 20
-39.0
 30
0.0
 11
9.393358876117501
 21
-39.0
 31
0.0
  0
LINE
  5
84
330
DB
100
AcDbEntity
  8
1
 62
     7
100
AcDbLine
 10
9.393358876117501
 20
20.0
 30
0.0
 11
9.393358876117501
 21
-39.0
 31
0.0
  0
LINE
  5
85
330
DB
100
AcDbEntity
  8
1
 62
     7
100
AcDbLine
 10
64.39335887611751
 20
20.0
 30
0.0
 11
64.39335887611751
 21
-39.25
 31
0.0
  0
LINE
  5
86
330
DB
100
AcDbEntity
  8
1
 62
     7
100
AcDbLine
 10
64.39335887611751
 20
-39.25
 30
0.0
 11
58.39335887611749
 21
-39.25
 31
0.0
  0
LINE
  5
87
330
DB
100
AcDbEntity
  8
1
 62
     7
100
AcDbLine
 10
58.39335887611749
 20
-39.25
 30
0.0
 11
58.39335887611749
 21
20.0
 31
0.0
  0
LINE
  5
88
330
DB
100
AcDbEntity
  8
1
 62
     7
100
AcDbLine
 10
57.89335887611749
 20
-39.0
 30
0.0
 11
57.89335887611749
 21
20.0
 31
0.0
  0
LINE
  5
89
330
DB
100
AcDbEntity
  8
1
 62
     7
100
AcDbLine
 10
15.39335887611749
 20
-39.0
 30
0.0
 11
15.39335887611749
 21
20.0
 31
0.0
  0
LINE
  5
8A
330
DB
100
AcDbEntity
  8
1
 62
     7
100
AcDbLine
 10
58.39335887611749
 20
-33.0
 30
0.0
 11
57.89335887611749
 21
-33.0
 31
0.0
  0
LINE
  5
8B
330
DB
100
AcDbEntity
  8
1
 62
     7
100
AcDbLine
 10
74.39335887611751
 20
20.0
 30
0.0
 11
74.39335887611751
 21
2.5
 31
0.0
  0
LINE
  5
8C
330
DB
100
AcDbEntity
  8
1
 62
     7
100
AcDbLine
 10
74.39335887611751
 20
2.5
 30
0.0
 11
64.39335887611751
 21
2.5
 31
0.0
  0
LINE
  5
8D
330
DB
100
AcDbEntity
  8
1
  6
DASHDOT
 62
     3
100
AcDbLine
 10
4.393358876117497
 20
20.0
 30
0.0
 11
79.39335887611751
 21
20.0
 31
0.0
  0
LINE
  5
8E
330
DB
100
AcDbEntity
  8
1
  6
DASHDOT
 62
     3
100
AcDbLine
 10
167.529532823637
 20
20.0
 30
0.0
 11
167.529532823637
 21
23.0
 31
0.0
  0
LINE
  5
8F
330
DB
100
AcDbEntity
  8
1
  6
DASHDOT
 62
     3
100
AcDbLine
 10
167.529532823637
 20
20.0
 30
0.0
 11
164.529532823637
 21
20.0
 31
0.0
  0
LINE
  5
90
330
DB
100
AcDbEntity
  8
1
  6
DASHDOT
 62
     3
100
AcDbLine
 10
167.529532823637
 20
20.0
 30
0.0
 11
167.529532823637
 21
17.0
 31
0.0
  0
LINE
  5
91
330
DB
100
AcDbEntity
  8
1
  6
DASHDOT
 62
     3
100
AcDbLine
 10
167.529532823637
 20
20.0
 30
0.0
 11
170.529532823637
 21
19.99999999999997
 31
0.0
  0
LINE
  5
92
330
DB
100
AcDbEntity
  8
1
  6
DASHDOT
 62
     3
100
AcDbLine
 10
189.3295328236369
 20
57.75870760500153
 30
0.0
 11
183.829532823637
 21
48.23242816337271
 31
0.0
  0
LINE
  5
93
330
DB
100
AcDbEntity
  8
1
  6
DASHDOT
 62
     3
100
AcDbLine
 10
123.929532823637
 20
20.00000000000003
 30
0.0
 11
134.9295328236368
 21
20.00000000000003
 31
0.0
  0
LINE
  5
94
330
DB
100
AcDbEntity
  8
1
  6
DASHDOT
 62
     3
100
AcDbLine
 10
189.3295328236369
 20
-17.75870760500151
 30
0.0
 11
183.829532823637
 21
-8.232428163372674
 31
0.0
  0
LINE
  5
95
330
DB
100
AcDbEntity
  8
1
 62
     7
100
AcDbLine
 10
165.0295328236369
 20
27.59934207678532
 30
0.0
 11
165.0295328236369
 21
30.3
 31
0.0
  0
LINE
  5
96
330
DB
100
AcDbEntity
  8
1
 62
     7
100
AcDbLine
 10
165.0295328236369
 20
30.3
 30
0.0
 11
170.029532823637
 21
30.3
 31
0.0
  0
LINE
  5
97
330
DB
100
AcDbEntity
  8
1
 62
     7
100
AcDbLine
 10
170.029532823637
 20
30.3
 30
0.0
 11
170.029532823637
 21
27.59934207678532
 31
0.0
  0
LINE
  5
98
330
DB
100
AcDbEntity
  8
1
  6
DASHED
 62
     3
100
AcDbLine
 10
165.529532823637
 20
30.3
 30
0.0
 11
165.529532823637
 21
37.38533865071371
 31
0.0
  0
LINE
  5
99
330
DB
100
AcDbEntity
  8
1
  6
DASHED
 62
     3
100
AcDbLine
 10
169.529532823637
 20
37.38533865071371
 30
0.0
 11
169.529532823637
 21
30.3
 31
0.0
  0
LINE
  5
9A
330
DB
100
AcDbEntity
  8
1
  6
DASHED
 62
     7
100
AcDbLine
 10
166.129532823637
 20
30.3
 30
0.0
 11
166.129532823637
 21
37.44391011212795
 31
0.0
  0
LINE
  5
9B
330
DB
100
AcDbEntity
  8
1
  6
DASHED
 62
     7
100
AcDbLine
 10
168.929532823637
 20
37.44391011212795
 30
0.0
 11
168.929532823637
 21
30.3
 31
0.0
  0
LINE
  5
9C
330
DB
100
AcDbEntity
  8
1
  6
DASHDOT
 62
     3
100
AcDbLine
 10
167.529532823637
 20
27.3
 30
0.0
 11
167.529532823637
 21
40.49999999999999
 31
0.0
  0
LINE
  5
9D
330
DB
100
AcDbEntity
  8
1
  6
DASHED
 62
     3
100
AcDbLine
 10
159.7835661312221
 20
17.99999999999998
 30
0.0
 11
150.1441941729233
 21
17.99999999999998
 31
0.0
  0
LINE
  5
9E
330
DB
100
AcDbEntity
  8
1
  6
DASHED
 62
     3
100
AcDbLine
 10
150.1441941729233
 20
21.99999999999997
 30
0.0
 11
159.7835661312221
 21
21.99999999999997
 31
0.0
  0
LINE
  5
9F
330
DB
100
AcDbEntity
  8
1
  6
DASHED
 62
     7
100
AcDbLine
 10
159.6529853566308
 20
18.59999999999998
 30
0.0
 11
150.0856227115091
 21
18.59999999999998
 31
0.0
  0
LINE
  5
A0
330
DB
100
AcDbEntity
  8
1
  6
DASHED
 62
     7
100
AcDbLine
 10
150.0856227115091
 20
21.39999999999998
 30
0.0
 11
159.6529853566308
 21
21.39999999999998
 31
0.0
  0
LINE
  5
A1
330
DB
100
AcDbEntity
  8
1
  6
DASHDOT
 62
     3
100
AcDbLine
 10
162.529532823637
 20
20.0
 30
0.0
 11
147.0295328236369
 21
19.99999999999999
 31
0.0
  0
ARC
  5
A2
330
DB
100
AcDbEntity
  8
1
 62
     3
100
AcDbCircle
 10
68.3933588761175
 20
20.0
 30
0.0
 40
2.0
100
AcDbArc
 50
180.0
 51
0.0
  0
ARC
  5
A3
330
DB
100
AcDbEntity
  8
1
 62
     7
100
AcDbCircle
 10
68.3933588761175
 20
20.0
 30
0.0
 40
1.400000000000004
100
AcDbArc
 50
180.0
 51
0.0
  0
ARC
  5
A4
330
DB
100
AcDbEntity
  8
1
  6
DASHDOT
 62
     3
100
AcDbCircle
 10
167.529532823637
 20
20.0
 30
0.0
 40
38.09999999999997
100
AcDbArc
 50
51.6999563197136
 51
68.30004368028638
  0
ARC
  5
A5
330
DB
100
AcDbEntity
  8
1
  6
DASHDOT
 62
     3
100
AcDbCircle
 10
167.529532823637
 20
20.0
 30
0.0
 40
38.10000000000002
100
AcDbArc
 50
171.6999563197134
 51
188.3000436802864
  0
ARC
  5
A6
330
DB
100
AcDbEntity
  8
1
  6
DASHDOT
 62
     3
100
AcDbCircle
 10
167.529532823637
 20
20.0
 30
0.0
 40
38.09999999999996
100
AcDbArc
 50
291.6999563197137
 51
308.3000436802863
  0
ARC
  5
A7
330
DB
100
AcDbEntity
  8
1
 62
     7
100
AcDbCircle
 10
167.529532823637
 20
20.0
 30
0.0
 40
7.999999999999996
100
AcDbArc
 50
108.209956864283
 51
71.79004313571699
  0
CIRCLE
  5
A8
330
DB
100
AcDbEntity
  8
1
 62
     7
100
AcDbCircle
 10
53.39335887611749
 20
44.24999999999999
 30
0.0
 40
4.04999999999999
  0
CIRCLE
  5
A9
330
DB
100
AcDbEntity
  8
1
 62
     7
100
AcDbCircle
 10
20.3933588761175
 20
44.24999999999999
 30
0.0
 40
4.05
  0
CIRCLE
  5
AA
330
DB
100
AcDbEntity
  8
1
 62
     7
100
AcDbCircle
 10
167.529532823637
 20
20.0
 30
0.0
 40
59.25
  0
CIRCLE
  5
AB
330
DB
100
AcDbEntity
  8
1
 62
     7
100
AcDbCircle
 10
167.529532823637
 20
20.0
 30
0.0
 40
17.5
  0
CIRCLE
  5
AC
330
DB
100
AcDbEntity
  8
1
 62
     7
100
AcDbCircle
 10
167.529532823637
 20
20.0
 30
0.0
 40
31.0
  0
CIRCLE
  5
AD
330
DB
100
AcDbEntity
  8
1
 62
     7
100
AcDbCircle
 10
186.579532823637
 20
52.99556788418711
 30
0.0
 40
1.899999999999975
  0
CIRCLE
  5
AE
330
DB
100
AcDbEntity
  8
1
 62
     3
100
AcDbCircle
 10
186.579532823637
 20
52.99556788418711
 30
0.0
 40
2.5
  0
CIRCLE
  5
AF
330
DB
100
AcDbEntity
  8
1
 62
     7
100
AcDbCircle
 10
129.429532823637
 20
20.00000000000003
 30
0.0
 40
1.900000000000005
  0
CIRCLE
  5
B0
330
DB
100
AcDbEntity
  8
1
 62
     3
100
AcDbCircle
 10
129.429532823637
 20
20.00000000000003
 30
0.0
 40
2.500000000000014
  0
CIRCLE
  5
B1
330
DB
100
AcDbEntity
  8
1
 62
     7
100
AcDbCircle
 10
186.579532823637
 20
-12.9955678841871
 30
0.0
 40
1.900000000000013
  0
CIRCLE
  5
B2
330
DB
100
AcDbEntity
  8
1
 62
     3
100
AcDbCircle
 10
186.579532823637
 20
-12.9955678841871
 30
0.0
 40
2.499999999999995
  0
TEXT
  5
B4
330
DB
100
AcDbEntity
  8
1
 62
     7
100
AcDbText
 10
-16.61975039449765
 20
102.1275049469609
 30
0.0
 40
3.5
  1
PHT 30D
 41
0.9
  7
SIMPLEX
100
AcDbText
  0
ENDSEC
  0
SECTION
  2
OBJECTS
  0
DICTIONARY
  5
C7
330
0
100
AcDbDictionary
281
     1
  3
ACAD_COLOR
350
D6
  3
ACAD_GROUP
350
C8
  3
ACAD_LAYOUT
350
D4
  3
ACAD_MATERIAL
350
D5
  3
ACAD_MLINESTYLE
350
D1
  3
ACAD_PLOTSETTINGS
350
D3
  3
ACAD_PLOTSTYLENAME
350
C9
  0
DICTIONARY
  5
D6
102
{ACAD_REACTORS
330
C7
102
}
330
C7
100
AcDbDictionary
281
     1
  0
DICTIONARY
  5
C8
102
{ACAD_REACTORS
330
C7
102
}
330
C7
100
AcDbDictionary
281
     1
  0
DICTIONARY
  5
D4
102
{ACAD_REACTORS
330
C7
102
}
330
C7
100
AcDbDictionary
281
     1
  3
Layout1
350
DA
  3
Model
350
DE
  0
DICTIONARY
  5
D5
102
{ACAD_REACTORS
330
C7
102
}
330
C7
100
AcDbDictionary
281
     1
  0
DICTIONARY
  5
D1
102
{ACAD_REACTORS
330
C7
102
}
330
C7
100
AcDbDictionary
281
     1
  3
Standard
350
D2
  0
DICTIONARY
  5
D3
102
{ACAD_REACTORS
330
C7
102
}
330
C7
100
AcDbDictionary
281
     1
  0
ACDBDICTIONARYWDFLT
  5
C9
102
{ACAD_REACTORS
330
C7
102
}
330
C7
100
AcDbDictionary
281
     1
  3
Normal
350
CA
100
AcDbDictionaryWithDefault
340
CA
  0
LAYOUT
  5
DA
102
{ACAD_REACTORS
330
D4
102
}
330
D4
100
AcDbPlotSettings
  1

  2
\\Ogura1\HP Color LaserJet 4600 PCL 5c
  4

  6

 40
0.0
 41
0.0
 42
0.0
 43
0.0
 44
0.0
 45
0.0
 46
0.0
 47
0.0
 48
0.0
 49
0.0
140
0.0
141
0.0
142
1.0
143
1.0
 70
   688
 72
     0
 73
     0
 74
     5
  7

 75
    16
147
1.0
 76
     0
 77
     2
 78
   300
148
0.0
149
0.0
100
AcDbLayout
  1
Layout1
 70
     1
 71
     1
 10
0.0
 20
0.0
 11
12.0
 21
9.0
 12
0.0
 22
0.0
 32
0.0
 14
1.000000000000000E+20
 24
1.000000000000000E+20
 34
1.000000000000000E+20
 15
-1.000000000000000E+20
 25
-1.000000000000000E+20
 35
-1.000000000000000E+20
146
0.0
 13
0.0
 23
0.0
 33
0.0
 16
1.0
 26
0.0
 36
0.0
 17
0.0
 27
1.0
 37
0.0
 76
     0
330
D7
  0
LAYOUT
  5
DE
102
{ACAD_REACTORS
330
D4
102
}
330
D4
100
AcDbPlotSettings
  1

  2
\\Ogura1\HP Color LaserJet 4600 PCL 5c
  4

  6

 40
0.0
 41
0.0
 42
0.0
 43
0.0
 44
0.0
 45
0.0
 46
0.0
 47
0.0
 48
0.0
 49
0.0
140
0.0
141
0.0
142
1.0
143
1.0
 70
  1712
 72
     0
 73
     0
 74
     0
  7

 75
     0
147
1.0
 76
     0
 77
     2
 78
   300
148
0.0
149
0.0
100
AcDbLayout
  1
Model
 70
     1
 71
     0
 10
0.0
 20
0.0
 11
12.0
 21
9.0
 12
0.0
 22
0.0
 32
0.0
 14
0.0
 24
0.0
 34
0.0
 15
0.0
 25
0.0
 35
0.0
146
0.0
 13
0.0
 23
0.0
 33
0.0
 16
1.0
 26
0.0
 36
0.0
 17
0.0
 27
1.0
 37
0.0
 76
     0
330
DB
  0
MLINESTYLE
  5
D2
102
{ACAD_REACTORS
330
D1
102
}
330
D1
100
AcDbMlineStyle
  2
STANDARD
 70
     0
  3

 62
   256
 51
90.0
 52
90.0
 71
     2
 49
0.5
 62
   256
  6
BYLAYER
 49
-0.5
 62
   256
  6
BYLAYER
  0
ACDBPLACEHOLDER
  5
CA
102
{ACAD_REACTORS
330
C9
102
}
330
C9
  0
ENDSEC
  0
EOF
