  0
SECTION
  2
HEADER
  9
$ACADVER
  1
AC1018
  9
$ACADMAINTVER
 70
     0
  9
$DWGCODEPAGE
  3
ANSI_932
  9
$INSBASE
 10
0.0
 20
0.0
 30
0.0
  9
$EXTMIN
 10
-115.6820576784546
 20
-37.64030470191088
 30
-0.0015258207003583
  9
$EXTMAX
 10
147.180706490688
 20
57.88731506467454
 30
0.0000000349246037
  9
$LIMMIN
 10
-115.6740368450815
 20
-37.3388165911799
  9
$LIMMAX
 10
147.1726844333395
 20
57.884399748591
  9
$ORTHOMODE
 70
     0
  9
$REGENMODE
 70
     1
  9
$FILLMODE
 70
     1
  9
$QTEXTMODE
 70
     0
  9
$MIRRTEXT
 70
     1
  9
$LTSCALE
 40
1.0
  9
$ATTMODE
 70
     1
  9
$TEXTSIZE
 40
3.5
  9
$TRACEWID
 40
0.5
  9
$TEXTSTYLE
  7
STANDARD
  9
$CLAYER
  8
0
  9
$CELTYPE
  6
ByLayer
  9
$CECOLOR
 62
   256
  9
$CELTSCALE
 40
1.0
  9
$DISPSILH
 70
     0
  9
$DIMSCALE
 40
1.0
  9
$DIMASZ
 40
0.18
  9
$DIMEXO
 40
0.0625
  9
$DIMDLI
 40
0.38
  9
$DIMRND
 40
0.0
  9
$DIMDLE
 40
0.0
  9
$DIMEXE
 40
0.18
  9
$DIMTP
 40
0.0
  9
$DIMTM
 40
0.0
  9
$DIMTXT
 40
0.18
  9
$DIMCEN
 40
0.09
  9
$DIMTSZ
 40
0.0
  9
$DIMTOL
 70
     0
  9
$DIMLIM
 70
     0
  9
$DIMTIH
 70
     1
  9
$DIMTOH
 70
     1
  9
$DIMSE1
 70
     0
  9
$DIMSE2
 70
     0
  9
$DIMTAD
 70
     0
  9
$DIMZIN
 70
     0
  9
$DIMBLK
  1

  9
$DIMASO
 70
     1
  9
$DIMSHO
 70
     1
  9
$DIMPOST
  1

  9
$DIMAPOST
  1

  9
$DIMALT
 70
     0
  9
$DIMALTD
 70
     2
  9
$DIMALTF
 40
25.4
  9
$DIMLFAC
 40
1.0
  9
$DIMTOFL
 70
     0
  9
$DIMTVP
 40
0.0
  9
$DIMTIX
 70
     0
  9
$DIMSOXD
 70
     0
  9
$DIMSAH
 70
     0
  9
$DIMBLK1
  1

  9
$DIMBLK2
  1

  9
$DIMSTYLE
  2
STANDARD
  9
$DIMCLRD
 70
     0
  9
$DIMCLRE
 70
     0
  9
$DIMCLRT
 70
     0
  9
$DIMTFAC
 40
1.0
  9
$DIMGAP
 40
0.09
  9
$DIMJUST
 70
     0
  9
$DIMSD1
 70
     0
  9
$DIMSD2
 70
     0
  9
$DIMTOLJ
 70
     1
  9
$DIMTZIN
 70
     0
  9
$DIMALTZ
 70
     0
  9
$DIMALTTZ
 70
     0
  9
$DIMUPT
 70
     0
  9
$DIMDEC
 70
     4
  9
$DIMTDEC
 70
     4
  9
$DIMALTU
 70
     2
  9
$DIMALTTD
 70
     2
  9
$DIMTXSTY
  7
STANDARD
  9
$DIMAUNIT
 70
     0
  9
$DIMADEC
 70
     0
  9
$DIMALTRND
 40
0.0
  9
$DIMAZIN
 70
     0
  9
$DIMDSEP
 70
    46
  9
$DIMATFIT
 70
     3
  9
$DIMFRAC
 70
     0
  9
$DIMLDRBLK
  1

  9
$DIMLUNIT
 70
     2
  9
$DIMLWD
 70
    -2
  9
$DIMLWE
 70
    -2
  9
$DIMTMOVE
 70
     0
  9
$LUNITS
 70
     2
  9
$LUPREC
 70
     4
  9
$SKETCHINC
 40
0.1
  9
$FILLETRAD
 40
2.0
  9
$AUNITS
 70
     0
  9
$AUPREC
 70
     0
  9
$MENU
  1
ACAD
  9
$ELEVATION
 40
0.0
  9
$PELEVATION
 40
0.0
  9
$THICKNESS
 40
0.0
  9
$LIMCHECK
 70
     0
  9
$CHAMFERA
 40
0.0
  9
$CHAMFERB
 40
0.0
  9
$CHAMFERC
 40
0.0
  9
$CHAMFERD
 40
0.0
  9
$SKPOLY
 70
     0
  9
$TDCREATE
 40
2452095.339354977
  9
$TDUCREATE
 40
2452095.506021644
  9
$TDUPDATE
 40
2453209.448523993
  9
$TDUUPDATE
 40
2453209.615190660
  9
$TDINDWG
 40
0.0004886458
  9
$TDUSRTIMER
 40
0.0004886458
  9
$USRTIMER
 70
     1
  9
$ANGBASE
 50
0.0
  9
$ANGDIR
 70
     0
  9
$PDMODE
 70
     0
  9
$PDSIZE
 40
0.0
  9
$PLINEWID
 40
0.0
  9
$SPLFRAME
 70
     0
  9
$SPLINETYPE
 70
     6
  9
$SPLINESEGS
 70
     8
  9
$HANDSEED
  5
29D
  9
$SURFTAB1
 70
     6
  9
$SURFTAB2
 70
     6
  9
$SURFTYPE
 70
     6
  9
$SURFU
 70
     6
  9
$SURFV
 70
     6
  9
$UCSBASE
  2

  9
$UCSNAME
  2

  9
$UCSORG
 10
0.0
 20
0.0
 30
0.0
  9
$UCSXDIR
 10
1.0
 20
0.0
 30
0.0
  9
$UCSYDIR
 10
0.0
 20
1.0
 30
0.0
  9
$UCSORTHOREF
  2

  9
$UCSORTHOVIEW
 70
     0
  9
$UCSORGTOP
 10
0.0
 20
0.0
 30
0.0
  9
$UCSORGBOTTOM
 10
0.0
 20
0.0
 30
0.0
  9
$UCSORGLEFT
 10
0.0
 20
0.0
 30
0.0
  9
$UCSORGRIGHT
 10
0.0
 20
0.0
 30
0.0
  9
$UCSORGFRONT
 10
0.0
 20
0.0
 30
0.0
  9
$UCSORGBACK
 10
0.0
 20
0.0
 30
0.0
  9
$PUCSBASE
  2

  9
$PUCSNAME
  2

  9
$PUCSORG
 10
0.0
 20
0.0
 30
0.0
  9
$PUCSXDIR
 10
1.0
 20
0.0
 30
0.0
  9
$PUCSYDIR
 10
0.0
 20
1.0
 30
0.0
  9
$PUCSORTHOREF
  2

  9
$PUCSORTHOVIEW
 70
     0
  9
$PUCSORGTOP
 10
0.0
 20
0.0
 30
0.0
  9
$PUCSORGBOTTOM
 10
0.0
 20
0.0
 30
0.0
  9
$PUCSORGLEFT
 10
0.0
 20
0.0
 30
0.0
  9
$PUCSORGRIGHT
 10
0.0
 20
0.0
 30
0.0
  9
$PUCSORGFRONT
 10
0.0
 20
0.0
 30
0.0
  9
$PUCSORGBACK
 10
0.0
 20
0.0
 30
0.0
  9
$USERI1
 70
     0
  9
$USERI2
 70
     0
  9
$USERI3
 70
     0
  9
$USERI4
 70
     0
  9
$USERI5
 70
     0
  9
$USERR1
 40
0.0
  9
$USERR2
 40
0.0
  9
$USERR3
 40
0.0
  9
$USERR4
 40
0.0
  9
$USERR5
 40
0.0
  9
$WORLDVIEW
 70
     1
  9
$SHADEDGE
 70
     3
  9
$SHADEDIF
 70
    70
  9
$TILEMODE
 70
     1
  9
$MAXACTVP
 70
    64
  9
$PINSBASE
 10
0.0
 20
0.0
 30
0.0
  9
$PLIMCHECK
 70
     0
  9
$PEXTMIN
 10
1.000000000000000E+20
 20
1.000000000000000E+20
 30
1.000000000000000E+20
  9
$PEXTMAX
 10
-1.000000000000000E+20
 20
-1.000000000000000E+20
 30
-1.000000000000000E+20
  9
$PLIMMIN
 10
0.0
 20
0.0
  9
$PLIMMAX
 10
12.0
 20
9.0
  9
$UNITMODE
 70
     0
  9
$VISRETAIN
 70
     1
  9
$PLINEGEN
 70
     0
  9
$PSLTSCALE
 70
     1
  9
$TREEDEPTH
 70
  3020
  9
$CMLSTYLE
  2
Standard
  9
$CMLJUST
 70
     0
  9
$CMLSCALE
 40
1.0
  9
$PROXYGRAPHICS
 70
     1
  9
$MEASUREMENT
 70
     0
  9
$CELWEIGHT
370
    -1
  9
$ENDCAPS
280
     0
  9
$JOINSTYLE
280
     0
  9
$LWDISPLAY
290
     0
  9
$INSUNITS
 70
     0
  9
$HYPERLINKBASE
  1

  9
$STYLESHEET
  1

  9
$XEDIT
290
     1
  9
$CEPSNTYPE
380
     0
  9
$PSTYLEMODE
290
     1
  9
$FINGERPRINTGUID
  2
{FAE815FB-3472-47E6-86B9-2ABA1D3D3685}
  9
$VERSIONGUID
  2
{EE945AC6-105B-4EF8-A826-764CEDAE7EE2}
  9
$EXTNAMES
290
     1
  9
$PSVPSCALE
 40
0.0
  9
$OLESTARTUP
290
     0
  9
$SORTENTS
280
   127
  9
$INDEXCTL
280
     0
  9
$HIDETEXT
280
     0
  9
$XCLIPFRAME
290
     0
  9
$HALOGAP
280
     0
  9
$OBSCOLOR
 70
   257
  9
$OBSLTYPE
280
     0
  9
$INTERSECTIONDISPLAY
280
     0
  9
$INTERSECTIONCOLOR
 70
   257
  9
$DIMASSOC
280
     1
  9
$PROJECTNAME
  1

  0
ENDSEC
  0
SECTION
  2
CLASSES
  0
CLASS
  1
ACDBDICTIONARYWDFLT
  2
AcDbDictionaryWithDefault
  3
ObjectDBX Classes
 90
        0
 91
        1
280
     0
281
     0
  0
ENDSEC
  0
SECTION
  2
TABLES
  0
TABLE
  2
VPORT
  5
26A
330
0
100
AcDbSymbolTable
 70
     2
  0
VPORT
  5
29C
330
26A
100
AcDbSymbolTableRecord
100
AcDbViewportTableRecord
  2
*Active
 70
     0
 10
0.0
 20
0.0
 11
1.0
 21
1.0
 12
15.74932440611673
 22
10.12350518138183
 13
0.0
 23
0.0
 14
1.0
 24
1.0
 15
0.0
 25
0.0
 16
0.0
 26
0.0
 36
1.0
 17
0.0
 27
0.0
 37
0.0
 40
162.6598573775758
 41
1.625
 42
50.0
 43
0.0
 44
0.0
 50
0.0
 51
0.0
 71
     0
 72
   100
 73
     1
 74
     1
 75
     0
 76
     0
 77
     0
 78
     0
281
     0
 65
     1
110
0.0
120
0.0
130
0.0
111
1.0
121
0.0
131
0.0
112
0.0
122
1.0
132
0.0
 79
     0
146
0.0
  0
ENDTAB
  0
TABLE
  2
LTYPE
  5
267
330
0
100
AcDbSymbolTable
 70
     9
  0
LTYPE
  5
275
330
267
100
AcDbSymbolTableRecord
100
AcDbLinetypeTableRecord
  2
ByBlock
 70
     0
  3

 72
    65
 73
     0
 40
0.0
  0
LTYPE
  5
276
330
267
100
AcDbSymbolTableRecord
100
AcDbLinetypeTableRecord
  2
ByLayer
 70
     0
  3

 72
    65
 73
     0
 40
0.0
  0
LTYPE
  5
277
330
267
100
AcDbSymbolTableRecord
100
AcDbLinetypeTableRecord
  2
CONTINUOUS
 70
     0
  3
Solid line
 72
    65
 73
     0
 40
0.0
  0
LTYPE
  5
287
330
267
100
AcDbSymbolTableRecord
100
AcDbLinetypeTableRecord
  2
BORDER
 70
     0
  3
__ __ . __ __ .
 72
    65
 73
     6
 40
12.10478321676939
 49
3.458509490505539
 74
     0
 49
-1.729254745252768
 74
     0
 49
3.458509490505539
 74
     0
 49
-1.729254745252768
 74
     0
 49
0.0
 74
     0
 49
-1.729254745252768
 74
     0
  0
LTYPE
  5
288
330
267
100
AcDbSymbolTableRecord
100
AcDbLinetypeTableRecord
  2
CENTER
 70
     0
  3
____ _ ____ _
 72
    65
 73
     4
 40
13.83403796202215
 49
8.646273726263849
 74
     0
 49
-1.729254745252768
 74
     0
 49
1.729254745252768
 74
     0
 49
-1.729254745252768
 74
     0
  0
LTYPE
  5
289
330
267
100
AcDbSymbolTableRecord
100
AcDbLinetypeTableRecord
  2
DASHDOT
 70
     0
  3
__ . __ . __ .
 72
    65
 73
     4
 40
6.917018981011079
 49
3.458509490505539
 74
     0
 49
-1.729254745252768
 74
     0
 49
0.0
 74
     0
 49
-1.729254745252768
 74
     0
  0
LTYPE
  5
28A
330
267
100
AcDbSymbolTableRecord
100
AcDbLinetypeTableRecord
  2
DASHED
 70
     0
  3
__ __ __ __ __
 72
    65
 73
     2
 40
5.187764235758307
 49
3.458509490505539
 74
     0
 49
-1.729254745252768
 74
     0
  0
LTYPE
  5
28B
330
267
100
AcDbSymbolTableRecord
100
AcDbLinetypeTableRecord
  2
DIVIDE
 70
     0
  3
__ . . __ . . 
 72
    65
 73
     6
 40
8.646273726263849
 49
3.458509490505539
 74
     0
 49
-1.729254745252768
 74
     0
 49
0.0
 74
     0
 49
-1.729254745252768
 74
     0
 49
0.0
 74
     0
 49
-1.729254745252768
 74
     0
  0
LTYPE
  5
28C
330
267
100
AcDbSymbolTableRecord
100
AcDbLinetypeTableRecord
  2
DOT
 70
     0
  3
..............
 72
    65
 73
     4
 40
3.458509490505539
 49
0.0
 74
     0
 49
-1.729254745252768
 74
     0
 49
0.0
 74
     0
 49
-1.729254745252768
 74
     0
  0
LTYPE
  5
28D
330
267
100
AcDbSymbolTableRecord
100
AcDbLinetypeTableRecord
  2
HIDDEN
 70
     0
  3
_ _ _ _ _ _ _
 72
    65
 73
     2
 40
2.593882117879153
 49
1.729254745252768
 74
     0
 49
-0.8646273726263849
 74
     0
  0
LTYPE
  5
28E
330
267
100
AcDbSymbolTableRecord
100
AcDbLinetypeTableRecord
  2
PHANTOM
 70
     0
  3
_____ _ _ _____ _ _ 
 72
    65
 73
     6
 40
17.29254745252769
 49
8.646273726263849
 74
     0
 49
-1.729254745252768
 74
     0
 49
1.729254745252768
 74
     0
 49
-1.729254745252768
 74
     0
 49
1.729254745252768
 74
     0
 49
-1.729254745252768
 74
     0
  0
ENDTAB
  0
TABLE
  2
LAYER
  5
264
330
0
100
AcDbSymbolTable
 70
     2
  0
LAYER
  5
272
330
264
100
AcDbSymbolTableRecord
100
AcDbLayerTableRecord
  2
0
 70
     0
 62
     7
  6
CONTINUOUS
370
    -3
390
271
  0
LAYER
  5
28F
330
264
100
AcDbSymbolTableRecord
100
AcDbLayerTableRecord
  2
1
 70
     0
 62
     7
  6
CONTINUOUS
370
    -3
390
271
  0
ENDTAB
  0
TABLE
  2
STYLE
  5
265
330
0
100
AcDbSymbolTable
 70
     4
  0
STYLE
  5
273
330
265
100
AcDbSymbolTableRecord
100
AcDbTextStyleTableRecord
  2
STANDARD
 70
     0
 40
0.0
 41
1.0
 50
0.0
 71
     0
 42
3.5
  3
txt
  4

  0
STYLE
  5
290
330
265
100
AcDbSymbolTableRecord
100
AcDbTextStyleTableRecord
  2
SIMPLEX
 70
     0
 40
0.0
 41
1.0
 50
0.0
 71
     0
 42
3.5
  3
simplex
  4

  0
STYLE
  5
291
330
265
100
AcDbSymbolTableRecord
100
AcDbTextStyleTableRecord
  2
COMPLEX
 70
     0
 40
0.0
 41
1.0
 50
0.0
 71
     0
 42
3.5
  3
complex
  4

  0
STYLE
  5
292
330
265
100
AcDbSymbolTableRecord
100
AcDbTextStyleTableRecord
  2
ITALIC
 70
     0
 40
0.0
 41
1.0
 50
0.0
 71
     0
 42
3.5
  3
italic
  4

  0
ENDTAB
  0
TABLE
  2
VIEW
  5
268
330
0
100
AcDbSymbolTable
 70
     0
  0
ENDTAB
  0
TABLE
  2
UCS
  5
269
330
0
100
AcDbSymbolTable
 70
     0
  0
ENDTAB
  0
TABLE
  2
APPID
  5
26B
330
0
100
AcDbSymbolTable
 70
     1
  0
APPID
  5
274
330
26B
100
AcDbSymbolTableRecord
100
AcDbRegAppTableRecord
  2
ACAD
 70
     0
  0
ENDTAB
  0
TABLE
  2
DIMSTYLE
  5
26C
330
0
100
AcDbSymbolTable
 70
     1
100
AcDbDimStyleTable
 71
     0
  0
DIMSTYLE
105
293
330
26C
100
AcDbSymbolTableRecord
100
AcDbDimStyleTableRecord
  2
STANDARD
 70
     0
279
     2
340
273
  0
ENDTAB
  0
TABLE
  2
BLOCK_RECORD
  5
263
330
0
100
AcDbSymbolTable
 70
     2
  0
BLOCK_RECORD
  5
282
330
263
100
AcDbSymbolTableRecord
100
AcDbBlockTableRecord
  2
*Model_Space
340
285
  0
BLOCK_RECORD
  5
27E
330
263
100
AcDbSymbolTableRecord
100
AcDbBlockTableRecord
  2
*Paper_Space
340
281
  0
BLOCK_RECORD
  5
298
330
263
100
AcDbSymbolTableRecord
100
AcDbBlockTableRecord
  2
$MODEL_SPACE
340
0
  0
BLOCK_RECORD
  5
29A
330
263
100
AcDbSymbolTableRecord
100
AcDbBlockTableRecord
  2
$PAPER_SPACE
340
0
  0
ENDTAB
  0
ENDSEC
  0
SECTION
  2
BLOCKS
  0
BLOCK
  5
283
330
282
100
AcDbEntity
  8
0
100
AcDbBlockBegin
  2
*Model_Space
 70
     0
 10
0.0
 20
0.0
 30
0.0
  3
*Model_Space
  1

  0
ENDBLK
  5
284
330
282
100
AcDbEntity
  8
0
100
AcDbBlockEnd
  0
BLOCK
  5
27F
330
27E
100
AcDbEntity
 67
     1
  8
0
100
AcDbBlockBegin
  2
*Paper_Space
 70
     0
 10
0.0
 20
0.0
 30
0.0
  3
*Paper_Space
  1

  0
ENDBLK
  5
280
330
27E
100
AcDbEntity
 67
     1
  8
0
100
AcDbBlockEnd
  0
BLOCK
  5
299
330
298
100
AcDbEntity
  8
0
100
AcDbBlockBegin
  2
$MODEL_SPACE
 70
     0
 10
0.0
 20
0.0
 30
0.0
  3
$MODEL_SPACE
  1

  0
ENDBLK
  5
20
330
298
100
AcDbEntity
  8
0
100
AcDbBlockEnd
  0
BLOCK
  5
29B
330
29A
100
AcDbEntity
  8
0
100
AcDbBlockBegin
  2
$PAPER_SPACE
 70
     0
 10
0.0
 20
0.0
 30
0.0
  3
$PAPER_SPACE
  1

  0
ENDBLK
  5
1C
330
29A
100
AcDbEntity
  8
0
100
AcDbBlockEnd
  0
ENDSEC
  0
SECTION
  2
ENTITIES
  0
LINE
  5
33
330
282
100
AcDbEntity
  8
1
  6
DASHDOT
 62
     3
100
AcDbLine
 10
4.0
 20
2.288988321308456
 30
0.0
 11
4.0
 21
-2.288988321308456
 31
0.0
  0
LINE
  5
34
330
282
100
AcDbEntity
  8
1
  6
DASHDOT
 62
     3
100
AcDbLine
 10
6.288988321308456
 20
0.0
 30
0.0
 11
1.711011678691543
 21
0.0
 31
0.0
  0
LINE
  5
35
330
282
100
AcDbEntity
  8
1
 62
     7
100
AcDbLine
 10
42.00000000000005
 20
14.70000000000001
 30
0.0
 11
42.00000000000005
 21
7.500000000000006
 31
0.0
  0
LINE
  5
36
330
282
100
AcDbEntity
  8
1
  6
DASHDOT
 62
     3
100
AcDbLine
 10
50.00000000000007
 20
0.0000000000000027
 30
0.0
 11
45.00000000000006
 21
0.0000000000000027
 31
0.0
  0
LINE
  5
37
330
282
100
AcDbEntity
  8
1
  6
DASHDOT
 62
     3
100
AcDbLine
 10
-5.0
 20
0.0
 30
0.0
 11
0.0
 21
0.0
 31
0.0
  0
LINE
  5
38
330
282
100
AcDbEntity
  8
1
  6
DASHDOT
 62
     3
100
AcDbLine
 10
142.1726844333394
 20
0.0
 30
0.0
 11
147.1726844333395
 21
0.0
 31
0.0
  0
LINE
  5
39
330
282
100
AcDbEntity
  8
1
  6
DASHDOT
 62
     3
100
AcDbLine
 10
92.17268443333937
 20
0.0
 30
0.0
 11
97.17268443333937
 21
0.0
 31
0.0
  0
LINE
  5
3A
330
282
100
AcDbEntity
  8
1
  6
DASHDOT
 62
     3
100
AcDbLine
 10
-80.42403684508164
 20
-37.3388165911799
 30
0.0
 11
-80.42403684508164
 21
-22.66197520335869
 31
0.0
  0
LINE
  5
3B
330
282
100
AcDbEntity
  8
1
  6
DASHDOT
 62
     3
100
AcDbLine
 10
-80.42403684508164
 20
37.33881659117989
 30
0.0
 11
-80.42403684508164
 21
22.66197520335869
 31
0.0
  0
LINE
  5
3C
330
282
100
AcDbEntity
  8
1
  6
DASHDOT
 62
     3
100
AcDbLine
 10
-105.7309945828905
 20
-14.61097886229449
 30
0.0
 11
-112.0582494060994
 21
-18.26402113770558
 31
0.0
  0
LINE
  5
3D
330
282
100
AcDbEntity
  8
1
  6
DASHDOT
 62
     3
100
AcDbLine
 10
-55.11707910727273
 20
14.61097886229448
 30
0.0
 11
-48.7898242840638
 21
18.26402113770558
 31
0.0
  0
LINE
  5
3E
330
282
100
AcDbEntity
  8
1
  6
DASHDOT
 62
     3
100
AcDbLine
 10
-89.30033599437763
 20
-0.0000000000000044
 30
0.0
 11
-83.77307665608542
 21
-0.0000000000000044
 31
0.0
  0
LINE
  5
3F
330
282
100
AcDbEntity
  8
1
  6
DASHDOT
 62
     3
100
AcDbLine
 10
-80.42403684508164
 20
10.17629914929599
 30
0.0
 11
-80.42403684508164
 21
4.649039811003795
 31
0.0
  0
LINE
  5
40
330
282
100
AcDbEntity
  8
1
  6
DASHDOT
 62
     3
100
AcDbLine
 10
-67.63339661983542
 20
-22.15403873146083
 30
0.0
 11
-70.21467707032792
 21
-17.68312984262355
 31
0.0
  0
LINE
  5
41
330
282
100
AcDbEntity
  8
1
  6
DASHDOT
 62
     3
100
AcDbLine
 10
-106.0053172955742
 20
-0.0000000000000044
 30
0.0
 11
-100.8427563945891
 21
-0.0000000000000044
 31
0.0
  0
LINE
  5
42
330
282
100
AcDbEntity
  8
1
  6
DASHDOT
 62
     3
100
AcDbLine
 10
-67.63339661983542
 20
22.15403873146077
 30
0.0
 11
-70.21467707032792
 21
17.68312984262344
 31
0.0
  0
LINE
  5
43
330
282
100
AcDbEntity
  8
1
  6
DASHDOT
 62
     3
100
AcDbLine
 10
-80.42403684508164
 20
2.230461768412787
 30
0.0
 11
-80.42403684508164
 21
-2.230461768412797
 31
0.0
  0
LINE
  5
44
330
282
100
AcDbEntity
  8
1
  6
DASHDOT
 62
     3
100
AcDbLine
 10
-78.19357507666882
 20
-0.0000000000000044
 30
0.0
 11
-82.65449861349443
 21
-0.0000000000000044
 31
0.0
  0
LINE
  5
45
330
282
100
AcDbEntity
  8
1
 62
     7
100
AcDbLine
 10
23.85000000000007
 20
29.19999999999999
 30
0.0
 11
21.00000000000006
 21
29.19999999999999
 31
0.0
  0
LINE
  5
46
330
282
100
AcDbEntity
  8
1
 62
     7
100
AcDbLine
 10
29.15000000000009
 20
29.19999999999999
 30
0.0
 11
32.00000000000005
 21
29.19999999999999
 31
0.0
  0
LINE
  5
47
330
282
100
AcDbEntity
  8
1
 62
     7
100
AcDbLine
 10
33.00000000000005
 20
13.0
 30
0.0
 11
33.00000000000005
 21
14.70000000000001
 31
0.0
  0
LINE
  5
48
330
282
100
AcDbEntity
  8
1
 62
     7
100
AcDbLine
 10
20.00000000000006
 20
-13.0
 30
0.0
 11
20.00000000000006
 21
-14.69999999999999
 31
0.0
  0
LINE
  5
49
330
282
100
AcDbEntity
  8
1
 62
     7
100
AcDbLine
 10
24.60000000000007
 20
-29.19999999999999
 30
0.0
 11
24.60000000000007
 21
-13.0
 31
0.0
  0
LINE
  5
4A
330
282
100
AcDbEntity
  8
1
 62
     7
100
AcDbLine
 10
28.40000000000009
 20
29.19999999999999
 30
0.0
 11
28.40000000000009
 21
13.0
 31
0.0
  0
LINE
  5
4B
330
282
100
AcDbEntity
  8
1
  6
DASHDOT
 62
     3
100
AcDbLine
 10
17.00000000000006
 20
-36.37969606137228
 30
0.0
 11
17.00000000000006
 21
-22.4630512384951
 31
0.0
  0
LINE
  5
4C
330
282
100
AcDbEntity
  8
1
 62
     7
100
AcDbLine
 10
9.800000000000066
 20
14.69999999999999
 30
0.0
 11
11.00000000000006
 21
14.70000000000001
 31
0.0
  0
LINE
  5
4D
330
282
100
AcDbEntity
  8
1
 62
     7
100
AcDbLine
 10
43.2000000000001
 20
-14.69999999999999
 30
0.0
 11
42.00000000000005
 21
-14.69999999999999
 31
0.0
  0
LINE
  5
4E
330
282
100
AcDbEntity
  8
1
  6
DASHED
 62
     3
100
AcDbLine
 10
-107.6692970827052
 20
-13.70933239016986
 30
0.0
 11
-109.404029728909
 21
-14.71088075042759
 31
0.0
  0
LINE
  5
4F
330
282
100
AcDbEntity
  8
1
  6
DASHED
 62
     3
100
AcDbLine
 10
-53.17877660745789
 20
13.70933239016989
 30
0.0
 11
-51.44404396125399
 21
14.71088075042761
 31
0.0
  0
LINE
  5
50
330
282
100
AcDbEntity
  8
1
 62
     7
100
AcDbLine
 10
139.1726844333395
 20
35.0
 30
0.0
 11
139.1726844333394
 21
-35.0
 31
0.0
  0
LINE
  5
51
330
282
100
AcDbEntity
  8
1
 62
     7
100
AcDbLine
 10
142.1726844333394
 20
-35.0
 30
0.0
 11
142.1726844333395
 21
35.0
 31
0.0
  0
LINE
  5
52
330
282
100
AcDbEntity
  8
1
 62
     7
100
AcDbLine
 10
105.1726844333394
 20
-0.5000000000000009
 30
0.0
 11
108.1726844333394
 21
-0.5000000000000009
 31
0.0
  0
LINE
  5
53
330
282
100
AcDbEntity
  8
1
 62
     7
100
AcDbLine
 10
105.1726844333394
 20
0.4999999999999992
 30
0.0
 11
108.1726844333394
 21
0.4999999999999992
 31
0.0
  0
LINE
  5
54
330
282
100
AcDbEntity
  8
1
 62
     7
100
AcDbLine
 10
142.1726844333394
 20
-35.0
 30
0.0
 11
108.1726844333394
 21
-35.00000000000005
 31
0.0
  0
LINE
  5
55
330
282
100
AcDbEntity
  8
1
 62
     7
100
AcDbLine
 10
112.2726844333392
 20
-30.52739548340144
 30
0.0
 11
109.2726844333394
 21
-30.52739548340144
 31
0.0
  0
LINE
  5
56
330
282
100
AcDbEntity
  8
1
 62
     7
100
AcDbLine
 10
110.7726844333392
 20
-28.87510956118699
 30
0.0
 11
109.2726844333394
 21
-28.87510956118699
 31
0.0
  0
LINE
  5
57
330
282
100
AcDbEntity
  8
1
 62
     7
100
AcDbLine
 10
112.2726844333392
 20
-27.00306661994396
 30
0.0
 11
109.2726844333394
 21
-27.00306661994396
 31
0.0
  0
LINE
  5
58
330
282
100
AcDbEntity
  8
1
 62
     7
100
AcDbLine
 10
110.7726844333392
 20
-24.92551403682579
 30
0.0
 11
109.2726844333394
 21
-24.92551403682579
 31
0.0
  0
LINE
  5
59
330
282
100
AcDbEntity
  8
1
 62
     7
100
AcDbLine
 10
112.2726844333394
 20
-22.65826324145045
 30
0.0
 11
109.2726844333394
 21
-22.65826324145045
 31
0.0
  0
LINE
  5
5A
330
282
100
AcDbEntity
  8
1
 62
     7
100
AcDbLine
 10
110.7726844333394
 20
-20.21856938137438
 30
0.0
 11
109.2726844333394
 21
-20.21856938137438
 31
0.0
  0
LINE
  5
5B
330
282
100
AcDbEntity
  8
1
 62
     7
100
AcDbLine
 10
112.2726844333394
 20
-17.625
 30
0.0
 11
109.2726844333394
 21
-17.625
 31
0.0
  0
LINE
  5
5C
330
282
100
AcDbEntity
  8
1
 62
     7
100
AcDbLine
 10
110.7726844333394
 20
-14.89729372635969
 30
0.0
 11
109.2726844333394
 21
-14.89729372635969
 31
0.0
  0
LINE
  5
5D
330
282
100
AcDbEntity
  8
1
 62
     7
100
AcDbLine
 10
112.2726844333394
 20
-12.0562100522298
 30
0.0
 11
109.2726844333394
 21
-12.0562100522298
 31
0.0
  0
LINE
  5
5E
330
282
100
AcDbEntity
  8
1
 62
     7
100
AcDbLine
 10
110.7726844333394
 20
-9.123371339863869
 30
0.0
 11
109.2726844333394
 21
-9.123371339863869
 31
0.0
  0
LINE
  5
5F
330
282
100
AcDbEntity
  8
1
 62
     7
100
AcDbLine
 10
112.2726844333394
 20
-6.121098262759292
 30
0.0
 11
109.2726844333394
 21
-6.121098262759292
 31
0.0
  0
LINE
  5
60
330
282
100
AcDbEntity
  8
1
 62
     7
100
AcDbLine
 10
110.7726844333394
 20
-3.072239931854937
 30
0.0
 11
109.2726844333394
 21
-3.072239931854937
 31
0.0
  0
LINE
  5
61
330
282
100
AcDbEntity
  8
1
 62
     7
100
AcDbLine
 10
112.2726844333394
 20
-0.0000000000000009
 30
0.0
 11
109.2726844333394
 21
-0.0000000000000009
 31
0.0
  0
LINE
  5
62
330
282
100
AcDbEntity
  8
1
 62
     7
100
AcDbLine
 10
109.2726844333394
 20
4.999999999999994
 30
0.0
 11
116.2726844333394
 21
4.999999999999994
 31
0.0
  0
LINE
  5
63
330
282
100
AcDbEntity
  8
1
 62
     7
100
AcDbLine
 10
109.2726844333394
 20
-32.48265295662692
 30
0.0
 11
109.2726844333394
 21
4.999999999999994
 31
0.0
  0
LINE
  5
64
330
282
100
AcDbEntity
  8
1
 62
     7
100
AcDbLine
 10
116.2726844333394
 20
-32.48265295662692
 30
0.0
 11
109.2726844333394
 21
-32.48265295662692
 31
0.0
  0
LINE
  5
65
330
282
100
AcDbEntity
  8
1
 62
     7
100
AcDbLine
 10
116.2726844333394
 20
4.999999999999994
 30
0.0
 11
116.2726844333394
 21
-32.48265295662692
 31
0.0
  0
LINE
  5
66
330
282
100
AcDbEntity
  8
1
 62
     7
100
AcDbLine
 10
105.1726844333394
 20
7.499999999999995
 30
0.0
 11
105.1726844333394
 21
-7.5
 31
0.0
  0
LINE
  5
67
330
282
100
AcDbEntity
  8
1
 62
     7
100
AcDbLine
 10
102.6726844333393
 20
9.099999999999964
 30
0.0
 11
102.6726844333393
 21
7.499999999999995
 31
0.0
  0
LINE
  5
68
330
282
100
AcDbEntity
  8
1
 62
     7
100
AcDbLine
 10
105.1726844333394
 20
-7.5
 30
0.0
 11
97.17268443333937
 21
-7.5
 31
0.0
  0
LINE
  5
69
330
282
100
AcDbEntity
  8
1
 62
     3
100
AcDbLine
 10
102.0726844333393
 20
7.499999999999995
 30
0.0
 11
102.0726844333394
 21
9.399999999999975
 31
0.0
  0
LINE
  5
6A
330
282
100
AcDbEntity
  8
1
 62
     3
100
AcDbLine
 10
100.2726844333394
 20
7.499999999999995
 30
0.0
 11
100.2726844333394
 21
9.399999999999975
 31
0.0
  0
LINE
  5
6B
330
282
100
AcDbEntity
  8
1
 62
     7
100
AcDbLine
 10
99.67268443333937
 20
7.499999999999995
 30
0.0
 11
99.67268443333937
 21
9.099999999999964
 31
0.0
  0
LINE
  5
6C
330
282
100
AcDbEntity
  8
1
 62
     7
100
AcDbLine
 10
100.1922996756099
 20
9.399999999999975
 30
0.0
 11
102.1530691910687
 21
9.399999999999975
 31
0.0
  0
LINE
  5
6D
330
282
100
AcDbEntity
  8
1
 62
     7
100
AcDbLine
 10
102.1530691910687
 20
9.399999999999975
 30
0.0
 11
102.6726844333393
 21
9.099999999999964
 31
0.0
  0
LINE
  5
6E
330
282
100
AcDbEntity
  8
1
 62
     7
100
AcDbLine
 10
102.6726844333393
 20
9.099999999999964
 30
0.0
 11
99.67268443333937
 21
9.099999999999964
 31
0.0
  0
LINE
  5
6F
330
282
100
AcDbEntity
  8
1
 62
     7
100
AcDbLine
 10
99.67268443333937
 20
9.099999999999964
 30
0.0
 11
100.1922996756099
 21
9.399999999999975
 31
0.0
  0
LINE
  5
70
330
282
100
AcDbEntity
  8
1
 62
     7
100
AcDbLine
 10
108.1726844333394
 20
35.24999999999999
 30
0.0
 11
108.1726844333394
 21
-35.24999999999999
 31
0.0
  0
LINE
  5
71
330
282
100
AcDbEntity
  8
1
 62
     7
100
AcDbLine
 10
105.1726844333394
 20
35.24999999999999
 30
0.0
 11
108.1726844333394
 21
35.24999999999999
 31
0.0
  0
LINE
  5
72
330
282
100
AcDbEntity
  8
1
 62
     7
100
AcDbLine
 10
108.1726844333394
 20
-35.24999999999999
 30
0.0
 11
105.1726844333394
 21
-35.25000000000005
 31
0.0
  0
LINE
  5
73
330
282
100
AcDbEntity
  8
1
 62
     7
100
AcDbLine
 10
105.1726844333394
 20
-35.25000000000005
 30
0.0
 11
105.1726844333394
 21
-7.5
 31
0.0
  0
LINE
  5
74
330
282
100
AcDbEntity
  8
1
 62
     7
100
AcDbLine
 10
97.17268443333937
 20
-7.5
 30
0.0
 11
97.17268443333937
 21
7.499999999999995
 31
0.0
  0
LINE
  5
75
330
282
100
AcDbEntity
  8
1
 62
     7
100
AcDbLine
 10
97.17268443333937
 20
7.499999999999995
 30
0.0
 11
105.1726844333394
 21
7.499999999999995
 31
0.0
  0
LINE
  5
76
330
282
100
AcDbEntity
  8
1
 62
     7
100
AcDbLine
 10
105.1726844333394
 20
7.499999999999995
 30
0.0
 11
105.1726844333394
 21
35.24999999999999
 31
0.0
  0
LINE
  5
77
330
282
100
AcDbEntity
  8
1
 62
     7
100
AcDbLine
 10
108.1726844333394
 20
34.99999999999995
 30
0.0
 11
142.1726844333395
 21
35.0
 31
0.0
  0
LINE
  5
78
330
282
100
AcDbEntity
  8
1
  6
DASHDOT
 62
     3
100
AcDbLine
 10
17.00000000000006
 20
22.778129266378
 30
0.0
 11
17.00000000000006
 21
36.37969606137229
 31
0.0
  0
LINE
  5
79
330
282
100
AcDbEntity
  8
1
  6
DASHDOT
 62
     3
100
AcDbLine
 10
36.00000000000005
 20
22.778129266378
 30
0.0
 11
36.00000000000005
 21
36.37969606137229
 31
0.0
  0
LINE
  5
7A
330
282
100
AcDbEntity
  8
1
 62
     3
100
AcDbLine
 10
37.50000000000005
 20
30.96076951545867
 30
0.0
 11
34.50000000000005
 21
30.96076951545867
 31
0.0
  0
LINE
  5
7B
330
282
100
AcDbEntity
  8
1
 62
     3
100
AcDbLine
 10
37.50000000000005
 20
32.0
 30
0.0
 11
36.9000000000001
 21
30.96076951545867
 31
0.0
  0
LINE
  5
7C
330
282
100
AcDbEntity
  8
1
 62
     3
100
AcDbLine
 10
36.9000000000001
 20
30.96076951545867
 30
0.0
 11
36.9000000000001
 21
24.5
 31
0.0
  0
LINE
  5
7D
330
282
100
AcDbEntity
  8
1
 62
     3
100
AcDbLine
 10
34.50000000000005
 20
32.0
 30
0.0
 11
35.09999999999996
 21
30.96076951545867
 31
0.0
  0
LINE
  5
7E
330
282
100
AcDbEntity
  8
1
 62
     3
100
AcDbLine
 10
35.09999999999996
 20
30.96076951545867
 30
0.0
 11
35.09999999999996
 21
24.5
 31
0.0
  0
LINE
  5
7F
330
282
100
AcDbEntity
  8
1
 62
     7
100
AcDbLine
 10
37.50000000000005
 20
25.09999999999998
 30
0.0
 11
34.50000000000005
 21
25.09999999999998
 31
0.0
  0
LINE
  5
80
330
282
100
AcDbEntity
  8
1
 62
     7
100
AcDbLine
 10
37.50000000000005
 20
32.5
 30
0.0
 11
37.50000000000005
 21
25.09999999999998
 31
0.0
  0
LINE
  5
81
330
282
100
AcDbEntity
  8
1
 62
     7
100
AcDbLine
 10
37.50000000000005
 20
25.09999999999998
 30
0.0
 11
36.9000000000001
 21
24.5
 31
0.0
  0
LINE
  5
82
330
282
100
AcDbEntity
  8
1
 62
     7
100
AcDbLine
 10
36.9000000000001
 20
24.5
 30
0.0
 11
35.09999999999996
 21
24.5
 31
0.0
  0
LINE
  5
83
330
282
100
AcDbEntity
  8
1
 62
     7
100
AcDbLine
 10
35.09999999999996
 20
24.5
 30
0.0
 11
34.50000000000005
 21
25.09999999999998
 31
0.0
  0
LINE
  5
84
330
282
100
AcDbEntity
  8
1
 62
     7
100
AcDbLine
 10
34.50000000000005
 20
25.09999999999998
 30
0.0
 11
34.50000000000005
 21
32.5
 31
0.0
  0
LINE
  5
85
330
282
100
AcDbEntity
  8
1
 62
     7
100
AcDbLine
 10
37.50000000000005
 20
34.65000000000002
 30
0.0
 11
34.50000000000005
 21
34.65000000000002
 31
0.0
  0
LINE
  5
86
330
282
100
AcDbEntity
  8
1
 62
     7
100
AcDbLine
 10
38.75000000000005
 20
32.5
 30
0.0
 11
38.75000000000005
 21
32.90000000000001
 31
0.0
  0
LINE
  5
87
330
282
100
AcDbEntity
  8
1
 62
     7
100
AcDbLine
 10
38.75000000000005
 20
32.90000000000001
 30
0.0
 11
33.25000000000005
 21
32.90000000000001
 31
0.0
  0
LINE
  5
88
330
282
100
AcDbEntity
  8
1
 62
     7
100
AcDbLine
 10
33.25000000000005
 20
32.90000000000001
 30
0.0
 11
33.25000000000005
 21
32.5
 31
0.0
  0
LINE
  5
89
330
282
100
AcDbEntity
  8
1
 62
     7
100
AcDbLine
 10
32.75000000000005
 20
35.0
 30
0.0
 11
32.75000000000005
 21
32.5
 31
0.0
  0
LINE
  5
8A
330
282
100
AcDbEntity
  8
1
 62
     7
100
AcDbLine
 10
32.75000000000005
 20
32.5
 30
0.0
 11
39.25000000000005
 21
32.5
 31
0.0
  0
LINE
  5
8B
330
282
100
AcDbEntity
  8
1
 62
     7
100
AcDbLine
 10
39.25000000000005
 20
32.5
 30
0.0
 11
39.25000000000005
 21
35.0
 31
0.0
  0
LINE
  5
8C
330
282
100
AcDbEntity
  8
1
 62
     3
100
AcDbLine
 10
2.5
 20
5.399999999999984
 30
0.0
 11
2.5
 21
6.000000000000006
 31
0.0
  0
LINE
  5
8D
330
282
100
AcDbEntity
  8
1
 62
     3
100
AcDbLine
 10
5.5
 20
5.399999999999984
 30
0.0
 11
5.5
 21
6.000000000000006
 31
0.0
  0
LINE
  5
8E
330
282
100
AcDbEntity
  8
1
 62
     7
100
AcDbLine
 10
0.0000000000000568
 20
7.499999999999995
 30
0.0
 11
2.5
 21
7.499999999999995
 31
0.0
  0
LINE
  5
8F
330
282
100
AcDbEntity
  8
1
 62
     3
100
AcDbLine
 10
4.899999999999976
 20
5.399999999999984
 30
0.0
 11
4.899999999999976
 21
9.399999999999986
 31
0.0
  0
LINE
  5
90
330
282
100
AcDbEntity
  8
1
 62
     3
100
AcDbLine
 10
3.099999999999965
 20
5.399999999999984
 30
0.0
 11
3.099999999999965
 21
9.399999999999986
 31
0.0
  0
LINE
  5
91
330
282
100
AcDbEntity
  8
1
 62
     7
100
AcDbLine
 10
5.5
 20
6.000000000000006
 30
0.0
 11
2.5
 21
6.000000000000006
 31
0.0
  0
LINE
  5
92
330
282
100
AcDbEntity
  8
1
 62
     7
100
AcDbLine
 10
5.5
 20
9.100000000000008
 30
0.0
 11
5.5
 21
6.000000000000006
 31
0.0
  0
LINE
  5
93
330
282
100
AcDbEntity
  8
1
 62
     7
100
AcDbLine
 10
5.5
 20
6.000000000000006
 30
0.0
 11
4.899999999999976
 21
5.399999999999984
 31
0.0
  0
LINE
  5
94
330
282
100
AcDbEntity
  8
1
 62
     7
100
AcDbLine
 10
4.899999999999976
 20
5.399999999999984
 30
0.0
 11
3.099999999999965
 21
5.399999999999984
 31
0.0
  0
LINE
  5
95
330
282
100
AcDbEntity
  8
1
 62
     7
100
AcDbLine
 10
3.099999999999965
 20
5.399999999999984
 30
0.0
 11
2.5
 21
6.000000000000006
 31
0.0
  0
LINE
  5
96
330
282
100
AcDbEntity
  8
1
 62
     7
100
AcDbLine
 10
2.5
 20
6.000000000000006
 30
0.0
 11
2.5
 21
9.100000000000008
 31
0.0
  0
LINE
  5
97
330
282
100
AcDbEntity
  8
1
 62
     7
100
AcDbLine
 10
3.01961524227056
 20
9.399999999999986
 30
0.0
 11
4.980384757729267
 21
9.399999999999986
 31
0.0
  0
LINE
  5
98
330
282
100
AcDbEntity
  8
1
 62
     7
100
AcDbLine
 10
4.980384757729267
 20
9.399999999999986
 30
0.0
 11
5.5
 21
9.100000000000008
 31
0.0
  0
LINE
  5
99
330
282
100
AcDbEntity
  8
1
 62
     7
100
AcDbLine
 10
5.5
 20
9.100000000000008
 30
0.0
 11
2.5
 21
9.100000000000008
 31
0.0
  0
LINE
  5
9A
330
282
100
AcDbEntity
  8
1
 62
     7
100
AcDbLine
 10
2.5
 20
9.100000000000008
 30
0.0
 11
3.01961524227056
 21
9.399999999999986
 31
0.0
  0
LINE
  5
9B
330
282
100
AcDbEntity
  8
1
  6
DASHDOT
 62
     3
100
AcDbLine
 10
4.0
 20
4.260252864060125
 30
0.0
 11
4.0
 21
10.28070657358368
 31
0.0
  0
LINE
  5
9C
330
282
100
AcDbEntity
  8
1
 62
     7
100
AcDbLine
 10
29.15000000000009
 20
-14.69999999999999
 30
0.0
 11
33.00000000000005
 21
-14.69999999999999
 31
0.0
  0
LINE
  5
9D
330
282
100
AcDbEntity
  8
1
 62
     7
100
AcDbLine
 10
29.15000000000009
 20
-29.19999999999999
 30
0.0
 11
29.15000000000009
 21
-14.69999999999999
 31
0.0
  0
LINE
  5
9E
330
282
100
AcDbEntity
  8
1
 62
     7
100
AcDbLine
 10
32.00000000000005
 20
-29.19999999999999
 30
0.0
 11
29.15000000000009
 21
-29.19999999999999
 31
0.0
  0
LINE
  5
9F
330
282
100
AcDbEntity
  8
1
 62
     7
100
AcDbLine
 10
21.00000000000006
 20
-29.19999999999999
 30
0.0
 11
23.85000000000007
 21
-29.19999999999999
 31
0.0
  0
LINE
  5
A0
330
282
100
AcDbEntity
  8
1
 62
     7
100
AcDbLine
 10
23.85000000000007
 20
-29.19999999999999
 30
0.0
 11
23.85000000000007
 21
-14.69999999999999
 31
0.0
  0
LINE
  5
A1
330
282
100
AcDbEntity
  8
1
 62
     7
100
AcDbLine
 10
23.85000000000007
 20
-14.69999999999999
 30
0.0
 11
20.00000000000006
 21
-14.69999999999999
 31
0.0
  0
LINE
  5
A2
330
282
100
AcDbEntity
  8
1
 62
     7
100
AcDbLine
 10
20.00000000000006
 20
14.70000000000001
 30
0.0
 11
23.85000000000007
 21
14.70000000000001
 31
0.0
  0
LINE
  5
A3
330
282
100
AcDbEntity
  8
1
 62
     7
100
AcDbLine
 10
23.85000000000007
 20
14.70000000000001
 30
0.0
 11
23.85000000000007
 21
29.19999999999999
 31
0.0
  0
LINE
  5
A4
330
282
100
AcDbEntity
  8
1
 62
     7
100
AcDbLine
 10
33.00000000000005
 20
14.70000000000001
 30
0.0
 11
29.15000000000009
 21
14.70000000000001
 31
0.0
  0
LINE
  5
A5
330
282
100
AcDbEntity
  8
1
 62
     7
100
AcDbLine
 10
29.15000000000009
 20
14.70000000000001
 30
0.0
 11
29.15000000000009
 21
29.19999999999999
 31
0.0
  0
LINE
  5
A6
330
282
100
AcDbEntity
  8
1
 62
     7
100
AcDbLine
 10
9.800000000000066
 20
-14.0
 30
0.0
 11
8.000000000000056
 21
-14.0
 31
0.0
  0
LINE
  5
A7
330
282
100
AcDbEntity
  8
1
 62
     7
100
AcDbLine
 10
11.15000000000009
 20
14.00000000000001
 30
0.0
 11
20.00000000000006
 21
14.00000000000001
 31
0.0
  0
LINE
  5
A8
330
282
100
AcDbEntity
  8
1
 62
     7
100
AcDbLine
 10
9.800000000000066
 20
7.499999999999995
 30
0.0
 11
9.800000000000066
 21
14.69999999999999
 31
0.0
  0
LINE
  5
A9
330
282
100
AcDbEntity
  8
1
 62
     7
100
AcDbLine
 10
11.0
 20
-14.69999999999999
 30
0.0
 11
9.800000000000066
 21
-14.69999999999999
 31
0.0
  0
LINE
  5
AA
330
282
100
AcDbEntity
  8
1
 62
     7
100
AcDbLine
 10
20.00000000000006
 20
-14.0
 30
0.0
 11
11.0
 21
-14.0
 31
0.0
  0
LINE
  5
AB
330
282
100
AcDbEntity
  8
1
 62
     7
100
AcDbLine
 10
15.50000000000006
 20
-30.5
 30
0.0
 11
11.00000000000006
 21
-30.49999999999998
 31
0.0
  0
LINE
  5
AC
330
282
100
AcDbEntity
  8
1
 62
     7
100
AcDbLine
 10
11.00000000000006
 20
-30.49999999999998
 30
0.0
 11
11.00000000000006
 21
-35.25
 31
0.0
  0
LINE
  5
AD
330
282
100
AcDbEntity
  8
1
 62
     7
100
AcDbLine
 10
11.00000000000006
 20
-35.25
 30
0.0
 11
8.000000000000056
 21
-35.25
 31
0.0
  0
LINE
  5
AE
330
282
100
AcDbEntity
  8
1
 62
     7
100
AcDbLine
 10
8.000000000000056
 20
14.00000000000001
 30
0.0
 11
9.800000000000066
 21
14.00000000000001
 31
0.0
  0
LINE
  5
AF
330
282
100
AcDbEntity
  8
1
 62
     7
100
AcDbLine
 10
11.00000000000006
 20
35.24999999999999
 30
0.0
 11
11.0
 21
30.5
 31
0.0
  0
LINE
  5
B0
330
282
100
AcDbEntity
  8
1
 62
     7
100
AcDbLine
 10
8.0
 20
35.24999999999999
 30
0.0
 11
11.00000000000006
 21
35.24999999999999
 31
0.0
  0
LINE
  5
B1
330
282
100
AcDbEntity
  8
1
 62
     7
100
AcDbLine
 10
8.000000000000056
 20
7.499999999999995
 30
0.0
 11
8.0
 21
35.24999999999999
 31
0.0
  0
LINE
  5
B2
330
282
100
AcDbEntity
  8
1
 62
     7
100
AcDbLine
 10
45.00000000000006
 20
-14.0
 30
0.0
 11
43.2000000000001
 21
-14.0
 31
0.0
  0
LINE
  5
B3
330
282
100
AcDbEntity
  8
1
 62
     7
100
AcDbLine
 10
33.00000000000005
 20
14.00000000000001
 30
0.0
 11
42.00000000000005
 21
14.00000000000001
 31
0.0
  0
LINE
  5
B4
330
282
100
AcDbEntity
  8
1
 62
     7
100
AcDbLine
 10
43.2000000000001
 20
14.70000000000001
 30
0.0
 11
43.2000000000001
 21
-14.69999999999999
 31
0.0
  0
LINE
  5
B5
330
282
100
AcDbEntity
  8
1
 62
     7
100
AcDbLine
 10
42.00000000000005
 20
14.70000000000001
 30
0.0
 11
43.2000000000001
 21
14.70000000000001
 31
0.0
  0
LINE
  5
B6
330
282
100
AcDbEntity
  8
1
 62
     7
100
AcDbLine
 10
42.00000000000005
 20
-14.0
 30
0.0
 11
33.00000000000005
 21
-14.0
 31
0.0
  0
LINE
  5
B7
330
282
100
AcDbEntity
  8
1
 62
     7
100
AcDbLine
 10
42.00000000000005
 20
-35.0
 30
0.0
 11
42.00000000000005
 21
-30.49999999999998
 31
0.0
  0
LINE
  5
B8
330
282
100
AcDbEntity
  8
1
 62
     7
100
AcDbLine
 10
45.00000000000006
 20
35.0
 30
0.0
 11
45.00000000000006
 21
-35.0
 31
0.0
  0
LINE
  5
B9
330
282
100
AcDbEntity
  8
1
 62
     7
100
AcDbLine
 10
43.2000000000001
 20
14.00000000000001
 30
0.0
 11
45.00000000000006
 21
14.00000000000001
 31
0.0
  0
LINE
  5
BA
330
282
100
AcDbEntity
  8
1
 62
     7
100
AcDbLine
 10
37.50000000000005
 20
30.5
 30
0.0
 11
42.00000000000005
 21
30.5
 31
0.0
  0
LINE
  5
BB
330
282
100
AcDbEntity
  8
1
 62
     7
100
AcDbLine
 10
42.00000000000005
 20
30.5
 30
0.0
 11
42.00000000000005
 21
35.0
 31
0.0
  0
LINE
  5
BC
330
282
100
AcDbEntity
  8
1
 62
     7
100
AcDbLine
 10
43.2000000000001
 20
-14.69999999999999
 30
0.0
 11
43.2000000000001
 21
14.70000000000001
 31
0.0
  0
LINE
  5
BD
330
282
100
AcDbEntity
  8
1
 62
     7
100
AcDbLine
 10
43.2000000000001
 20
-14.69999999999999
 30
0.0
 11
43.2000000000001
 21
14.70000000000001
 31
0.0
  0
LINE
  5
BE
330
282
100
AcDbEntity
  8
1
 62
     7
100
AcDbLine
 10
42.00000000000005
 20
11.70000000000001
 30
0.0
 11
43.2000000000001
 21
11.70000000000001
 31
0.0
  0
LINE
  5
BF
330
282
100
AcDbEntity
  8
1
 62
     7
100
AcDbLine
 10
43.2000000000001
 20
-11.69999999999999
 30
0.0
 11
42.00000000000005
 21
-11.69999999999999
 31
0.0
  0
LINE
  5
C0
330
282
100
AcDbEntity
  8
1
 62
     7
100
AcDbLine
 10
42.00000000000005
 20
9.061250462620366
 30
0.0
 11
39.47499999999996
 21
9.061250462620366
 31
0.0
  0
LINE
  5
C1
330
282
100
AcDbEntity
  8
1
 62
     7
100
AcDbLine
 10
35.00000000000005
 20
9.061250462620366
 30
0.0
 11
37.5250000000001
 21
9.061250462620366
 31
0.0
  0
LINE
  5
C2
330
282
100
AcDbEntity
  8
1
 62
     7
100
AcDbLine
 10
35.00000000000005
 20
12.43874953737966
 30
0.0
 11
37.5250000000001
 21
12.43874953737966
 31
0.0
  0
LINE
  5
C3
330
282
100
AcDbEntity
  8
1
 62
     7
100
AcDbLine
 10
42.00000000000005
 20
12.43874953737966
 30
0.0
 11
39.47499999999996
 21
12.43874953737966
 31
0.0
  0
LINE
  5
C4
330
282
100
AcDbEntity
  8
1
 62
     7
100
AcDbLine
 10
35.00000000000005
 20
14.00000000000001
 30
0.0
 11
35.0
 21
7.500000000000006
 31
0.0
  0
LINE
  5
C5
330
282
100
AcDbEntity
  8
1
 62
     7
100
AcDbLine
 10
35.00000000000005
 20
-9.061250462620332
 30
0.0
 11
37.5250000000001
 21
-9.061250462620332
 31
0.0
  0
LINE
  5
C6
330
282
100
AcDbEntity
  8
1
 62
     7
100
AcDbLine
 10
42.00000000000005
 20
-9.061250462620332
 30
0.0
 11
39.47499999999996
 21
-9.061250462620332
 31
0.0
  0
LINE
  5
C7
330
282
100
AcDbEntity
  8
1
 62
     7
100
AcDbLine
 10
42.00000000000005
 20
-12.43874953737963
 30
0.0
 11
39.47499999999996
 21
-12.43874953737963
 31
0.0
  0
LINE
  5
C8
330
282
100
AcDbEntity
  8
1
 62
     7
100
AcDbLine
 10
35.00000000000005
 20
-12.43874953737963
 30
0.0
 11
37.5250000000001
 21
-12.43874953737963
 31
0.0
  0
LINE
  5
C9
330
282
100
AcDbEntity
  8
1
 62
     7
100
AcDbLine
 10
35.00000000000005
 20
-7.499999999999996
 30
0.0
 11
35.00000000000005
 21
-14.0
 31
0.0
  0
LINE
  5
CA
330
282
100
AcDbEntity
  8
1
 62
     7
100
AcDbLine
 10
11.77999999999997
 20
7.499999999999995
 30
0.0
 11
17.21999999999986
 21
7.499999999999995
 31
0.0
  0
LINE
  5
CB
330
282
100
AcDbEntity
  8
1
 62
     7
100
AcDbLine
 10
11.0
 20
13.22
 30
0.0
 11
11.0
 21
8.279999999999997
 31
0.0
  0
LINE
  5
CC
330
282
100
AcDbEntity
  8
1
 62
     7
100
AcDbLine
 10
17.21999999999986
 20
14.00000000000001
 30
0.0
 11
11.77999999999997
 21
14.00000000000001
 31
0.0
  0
LINE
  5
CD
330
282
100
AcDbEntity
  8
1
 62
     7
100
AcDbLine
 10
18.0
 20
8.279999999999997
 30
0.0
 11
18.0
 21
13.22
 31
0.0
  0
LINE
  5
CE
330
282
100
AcDbEntity
  8
1
 62
     7
100
AcDbLine
 10
11.0
 20
12.43874953737966
 30
0.0
 11
13.52499999999998
 21
12.43874953737966
 31
0.0
  0
LINE
  5
CF
330
282
100
AcDbEntity
  8
1
 62
     7
100
AcDbLine
 10
18.0
 20
12.43874953737966
 30
0.0
 11
15.47499999999996
 21
12.43874953737966
 31
0.0
  0
LINE
  5
D0
330
282
100
AcDbEntity
  8
1
 62
     7
100
AcDbLine
 10
18.0
 20
9.061250462620355
 30
0.0
 11
15.47499999999996
 21
9.061250462620355
 31
0.0
  0
LINE
  5
D1
330
282
100
AcDbEntity
  8
1
 62
     7
100
AcDbLine
 10
11.0
 20
9.061250462620355
 30
0.0
 11
13.52499999999998
 21
9.061250462620355
 31
0.0
  0
LINE
  5
D2
330
282
100
AcDbEntity
  8
1
 62
     7
100
AcDbLine
 10
17.21999999999986
 20
7.499999999999995
 30
0.0
 11
18.0
 21
7.499999999999995
 31
0.0
  0
LINE
  5
D3
330
282
100
AcDbEntity
  8
1
 62
     7
100
AcDbLine
 10
18.0
 20
7.499999999999995
 30
0.0
 11
18.0
 21
8.279999999999997
 31
0.0
  0
LINE
  5
D4
330
282
100
AcDbEntity
  8
1
 62
     7
100
AcDbLine
 10
11.77999999999997
 20
14.00000000000001
 30
0.0
 11
11.0
 21
14.00000000000001
 31
0.0
  0
LINE
  5
D5
330
282
100
AcDbEntity
  8
1
 62
     7
100
AcDbLine
 10
11.0
 20
14.00000000000001
 30
0.0
 11
11.0
 21
13.22
 31
0.0
  0
LINE
  5
D6
330
282
100
AcDbEntity
  8
1
 62
     7
100
AcDbLine
 10
18.0
 20
13.22
 30
0.0
 11
18.0
 21
14.00000000000001
 31
0.0
  0
LINE
  5
D7
330
282
100
AcDbEntity
  8
1
 62
     7
100
AcDbLine
 10
18.0
 20
14.00000000000001
 30
0.0
 11
17.21999999999986
 21
14.00000000000001
 31
0.0
  0
LINE
  5
D8
330
282
100
AcDbEntity
  8
1
 62
     7
100
AcDbLine
 10
11.0
 20
7.499999999999995
 30
0.0
 11
11.77999999999997
 21
7.499999999999995
 31
0.0
  0
LINE
  5
D9
330
282
100
AcDbEntity
  8
1
 62
     7
100
AcDbLine
 10
11.0
 20
8.279999999999997
 30
0.0
 11
11.0
 21
7.499999999999995
 31
0.0
  0
LINE
  5
DA
330
282
100
AcDbEntity
  8
1
 62
     7
100
AcDbLine
 10
11.0
 20
-9.061250462620332
 30
0.0
 11
13.52499999999998
 21
-9.061250462620332
 31
0.0
  0
LINE
  5
DB
330
282
100
AcDbEntity
  8
1
 62
     7
100
AcDbLine
 10
18.0
 20
-9.061250462620332
 30
0.0
 11
15.47499999999996
 21
-9.061250462620332
 31
0.0
  0
LINE
  5
DC
330
282
100
AcDbEntity
  8
1
 62
     7
100
AcDbLine
 10
18.0
 20
-12.43874953737963
 30
0.0
 11
15.47499999999996
 21
-12.43874953737963
 31
0.0
  0
LINE
  5
DD
330
282
100
AcDbEntity
  8
1
 62
     7
100
AcDbLine
 10
11.0
 20
-12.43874953737964
 30
0.0
 11
13.52499999999998
 21
-12.43874953737964
 31
0.0
  0
LINE
  5
DE
330
282
100
AcDbEntity
  8
1
 62
     7
100
AcDbLine
 10
18.0
 20
-14.0
 30
0.0
 11
18.0
 21
-7.499999999999996
 31
0.0
  0
LINE
  5
DF
330
282
100
AcDbEntity
  8
1
 62
     7
100
AcDbLine
 10
11.0
 20
-7.499999999999996
 30
0.0
 11
11.0
 21
-14.69999999999999
 31
0.0
  0
LINE
  5
E0
330
282
100
AcDbEntity
  8
1
 62
     7
100
AcDbLine
 10
18.0
 20
-7.499999999999996
 30
0.0
 11
0.0
 21
-7.500000000000001
 31
0.0
  0
LINE
  5
E1
330
282
100
AcDbEntity
  8
1
 62
     7
100
AcDbLine
 10
11.00000000000006
 20
14.70000000000001
 30
0.0
 11
11.0
 21
14.00000000000001
 31
0.0
  0
LINE
  5
E2
330
282
100
AcDbEntity
  8
1
 62
     7
100
AcDbLine
 10
9.800000000000066
 20
11.70000000000001
 30
0.0
 11
11.0
 21
11.70000000000001
 31
0.0
  0
LINE
  5
E3
330
282
100
AcDbEntity
  8
1
 62
     7
100
AcDbLine
 10
11.0
 20
-11.69999999999999
 30
0.0
 11
9.800000000000066
 21
-11.69999999999999
 31
0.0
  0
LINE
  5
E4
330
282
100
AcDbEntity
  8
1
 62
     7
100
AcDbLine
 10
19.0
 20
10.5
 30
0.0
 11
18.00000000000006
 21
10.5
 31
0.0
  0
LINE
  5
E5
330
282
100
AcDbEntity
  8
1
 62
     7
100
AcDbLine
 10
19.0
 20
13.0
 30
0.0
 11
19.0
 21
10.5
 31
0.0
  0
LINE
  5
E6
330
282
100
AcDbEntity
  8
1
 62
     7
100
AcDbLine
 10
24.60000000000007
 20
13.0
 30
0.0
 11
19.0
 21
13.0
 31
0.0
  0
LINE
  5
E7
330
282
100
AcDbEntity
  8
1
 62
     7
100
AcDbLine
 10
34.00000000000005
 20
10.5
 30
0.0
 11
35.00000000000005
 21
10.5
 31
0.0
  0
LINE
  5
E8
330
282
100
AcDbEntity
  8
1
 62
     7
100
AcDbLine
 10
34.00000000000005
 20
13.0
 30
0.0
 11
34.00000000000005
 21
10.5
 31
0.0
  0
LINE
  5
E9
330
282
100
AcDbEntity
  8
1
 62
     7
100
AcDbLine
 10
28.40000000000009
 20
13.0
 30
0.0
 11
34.00000000000005
 21
13.0
 31
0.0
  0
LINE
  5
EA
330
282
100
AcDbEntity
  8
1
 62
     7
100
AcDbLine
 10
24.60000000000007
 20
29.19999999999999
 30
0.0
 11
28.40000000000009
 21
29.19999999999999
 31
0.0
  0
LINE
  5
EB
330
282
100
AcDbEntity
  8
1
 62
     7
100
AcDbLine
 10
24.60000000000007
 20
13.0
 30
0.0
 11
24.60000000000007
 21
29.19999999999999
 31
0.0
  0
LINE
  5
EC
330
282
100
AcDbEntity
  8
1
 62
     7
100
AcDbLine
 10
20.00000000000006
 20
14.70000000000001
 30
0.0
 11
20.00000000000006
 21
13.0
 31
0.0
  0
LINE
  5
ED
330
282
100
AcDbEntity
  8
1
 62
     7
100
AcDbLine
 10
28.40000000000009
 20
-13.0
 30
0.0
 11
28.40000000000009
 21
-29.19999999999999
 31
0.0
  0
LINE
  5
EE
330
282
100
AcDbEntity
  8
1
 62
     7
100
AcDbLine
 10
28.40000000000009
 20
-29.19999999999999
 30
0.0
 11
24.60000000000007
 21
-29.19999999999999
 31
0.0
  0
LINE
  5
EF
330
282
100
AcDbEntity
  8
1
 62
     7
100
AcDbLine
 10
34.00000000000005
 20
-13.0
 30
0.0
 11
28.40000000000009
 21
-13.0
 31
0.0
  0
LINE
  5
F0
330
282
100
AcDbEntity
  8
1
 62
     7
100
AcDbLine
 10
34.00000000000005
 20
-10.5
 30
0.0
 11
34.00000000000005
 21
-13.0
 31
0.0
  0
LINE
  5
F1
330
282
100
AcDbEntity
  8
1
 62
     7
100
AcDbLine
 10
19.0
 20
-13.0
 30
0.0
 11
24.60000000000007
 21
-13.0
 31
0.0
  0
LINE
  5
F2
330
282
100
AcDbEntity
  8
1
 62
     7
100
AcDbLine
 10
19.0
 20
-10.5
 30
0.0
 11
19.0
 21
-13.0
 31
0.0
  0
LINE
  5
F3
330
282
100
AcDbEntity
  8
1
 62
     7
100
AcDbLine
 10
18.00000000000006
 20
-10.5
 30
0.0
 11
19.0
 21
-10.5
 31
0.0
  0
LINE
  5
F4
330
282
100
AcDbEntity
  8
1
 62
     7
100
AcDbLine
 10
35.00000000000005
 20
-10.5
 30
0.0
 11
34.00000000000005
 21
-10.5
 31
0.0
  0
LINE
  5
F5
330
282
100
AcDbEntity
  8
1
 62
     7
100
AcDbLine
 10
33.00000000000005
 20
-14.69999999999999
 30
0.0
 11
33.00000000000005
 21
-13.0
 31
0.0
  0
LINE
  5
F6
330
282
100
AcDbEntity
  8
1
 62
     7
100
AcDbLine
 10
5.5
 20
7.499999999999995
 30
0.0
 11
11.0
 21
7.499999999999995
 31
0.0
  0
LINE
  5
F7
330
282
100
AcDbEntity
  8
1
 62
     7
100
AcDbLine
 10
0.0
 20
-7.500000000000001
 30
0.0
 11
0.0000000000000568
 21
7.499999999999995
 31
0.0
  0
LINE
  5
F8
330
282
100
AcDbEntity
  8
1
 62
     7
100
AcDbLine
 10
43.0
 20
7.500000000000006
 30
0.0
 11
35.0
 21
7.500000000000006
 31
0.0
  0
LINE
  5
F9
330
282
100
AcDbEntity
  8
1
 62
     7
100
AcDbLine
 10
43.0
 20
-7.499999999999996
 30
0.0
 11
43.0
 21
7.500000000000006
 31
0.0
  0
LINE
  5
FA
330
282
100
AcDbEntity
  8
1
 62
     7
100
AcDbLine
 10
35.00000000000005
 20
-7.499999999999996
 30
0.0
 11
43.0
 21
-7.499999999999996
 31
0.0
  0
LINE
  5
FB
330
282
100
AcDbEntity
  8
1
 62
     7
100
AcDbLine
 10
42.00000000000005
 20
-14.69999999999999
 30
0.0
 11
42.00000000000005
 21
-7.499999999999996
 31
0.0
  0
LINE
  5
FC
330
282
100
AcDbEntity
  8
1
 62
     7
100
AcDbLine
 10
8.000000000000056
 20
-35.25
 30
0.0
 11
8.000000000000056
 21
-7.499999999999996
 31
0.0
  0
LINE
  5
FD
330
282
100
AcDbEntity
  8
1
 62
     7
100
AcDbLine
 10
9.800000000000066
 20
-14.69999999999999
 30
0.0
 11
9.800000000000066
 21
-7.499999999999996
 31
0.0
  0
LINE
  5
FE
330
282
100
AcDbEntity
  8
1
 62
     7
100
AcDbLine
 10
11.00000000000006
 20
35.0
 30
0.0
 11
45.00000000000006
 21
35.0
 31
0.0
  0
LINE
  5
FF
330
282
100
AcDbEntity
  8
1
 62
     7
100
AcDbLine
 10
11.00000000000006
 20
-34.99999999999996
 30
0.0
 11
45.00000000000006
 21
-35.0
 31
0.0
  0
LINE
  5
100
330
282
100
AcDbEntity
  8
1
 62
     7
100
AcDbLine
 10
20.25000000000006
 20
32.5
 30
0.0
 11
20.25000000000006
 21
35.0
 31
0.0
  0
LINE
  5
101
330
282
100
AcDbEntity
  8
1
 62
     7
100
AcDbLine
 10
13.75000000000006
 20
32.5
 30
0.0
 11
20.25000000000006
 21
32.5
 31
0.0
  0
LINE
  5
102
330
282
100
AcDbEntity
  8
1
 62
     7
100
AcDbLine
 10
13.75000000000006
 20
35.0
 30
0.0
 11
13.75000000000006
 21
32.5
 31
0.0
  0
LINE
  5
103
330
282
100
AcDbEntity
  8
1
 62
     7
100
AcDbLine
 10
14.25000000000006
 20
32.90000000000001
 30
0.0
 11
14.25000000000006
 21
32.5
 31
0.0
  0
LINE
  5
104
330
282
100
AcDbEntity
  8
1
 62
     7
100
AcDbLine
 10
19.75000000000006
 20
32.90000000000001
 30
0.0
 11
14.25000000000006
 21
32.90000000000001
 31
0.0
  0
LINE
  5
105
330
282
100
AcDbEntity
  8
1
 62
     7
100
AcDbLine
 10
19.75000000000006
 20
32.5
 30
0.0
 11
19.75000000000006
 21
32.90000000000001
 31
0.0
  0
LINE
  5
106
330
282
100
AcDbEntity
  8
1
 62
     7
100
AcDbLine
 10
18.50000000000006
 20
34.65000000000002
 30
0.0
 11
15.50000000000006
 21
34.65000000000002
 31
0.0
  0
LINE
  5
107
330
282
100
AcDbEntity
  8
1
 62
     7
100
AcDbLine
 10
15.50000000000006
 20
25.09999999999998
 30
0.0
 11
15.50000000000006
 21
32.5
 31
0.0
  0
LINE
  5
108
330
282
100
AcDbEntity
  8
1
 62
     7
100
AcDbLine
 10
16.09999999999996
 20
24.5
 30
0.0
 11
15.50000000000006
 21
25.09999999999998
 31
0.0
  0
LINE
  5
109
330
282
100
AcDbEntity
  8
1
 62
     7
100
AcDbLine
 10
17.90000000000009
 20
24.5
 30
0.0
 11
16.09999999999996
 21
24.5
 31
0.0
  0
LINE
  5
10A
330
282
100
AcDbEntity
  8
1
 62
     7
100
AcDbLine
 10
18.50000000000006
 20
25.09999999999998
 30
0.0
 11
17.90000000000009
 21
24.5
 31
0.0
  0
LINE
  5
10B
330
282
100
AcDbEntity
  8
1
 62
     7
100
AcDbLine
 10
18.50000000000006
 20
32.5
 30
0.0
 11
18.50000000000006
 21
25.09999999999998
 31
0.0
  0
LINE
  5
10C
330
282
100
AcDbEntity
  8
1
 62
     7
100
AcDbLine
 10
18.50000000000006
 20
25.09999999999998
 30
0.0
 11
15.50000000000006
 21
25.09999999999998
 31
0.0
  0
LINE
  5
10D
330
282
100
AcDbEntity
  8
1
 62
     3
100
AcDbLine
 10
16.09999999999996
 20
30.96076951545867
 30
0.0
 11
16.09999999999996
 21
24.5
 31
0.0
  0
LINE
  5
10E
330
282
100
AcDbEntity
  8
1
 62
     3
100
AcDbLine
 10
15.50000000000006
 20
32.0
 30
0.0
 11
16.09999999999996
 21
30.96076951545867
 31
0.0
  0
LINE
  5
10F
330
282
100
AcDbEntity
  8
1
 62
     3
100
AcDbLine
 10
17.90000000000009
 20
30.96076951545867
 30
0.0
 11
17.90000000000009
 21
24.5
 31
0.0
  0
LINE
  5
110
330
282
100
AcDbEntity
  8
1
 62
     3
100
AcDbLine
 10
18.50000000000006
 20
32.0
 30
0.0
 11
17.90000000000009
 21
30.96076951545867
 31
0.0
  0
LINE
  5
111
330
282
100
AcDbEntity
  8
1
 62
     3
100
AcDbLine
 10
18.50000000000006
 20
30.96076951545867
 30
0.0
 11
15.50000000000006
 21
30.96076951545867
 31
0.0
  0
LINE
  5
112
330
282
100
AcDbEntity
  8
1
 62
     7
100
AcDbLine
 10
11.0
 20
30.5
 30
0.0
 11
15.50000000000006
 21
30.50000000000002
 31
0.0
  0
LINE
  5
113
330
282
100
AcDbEntity
  8
1
 62
     7
100
AcDbLine
 10
20.25000000000006
 20
-35.0
 30
0.0
 11
20.25000000000006
 21
-32.5
 31
0.0
  0
LINE
  5
114
330
282
100
AcDbEntity
  8
1
 62
     7
100
AcDbLine
 10
20.25000000000006
 20
-32.5
 30
0.0
 11
13.75000000000006
 21
-32.5
 31
0.0
  0
LINE
  5
115
330
282
100
AcDbEntity
  8
1
 62
     7
100
AcDbLine
 10
13.75000000000006
 20
-32.5
 30
0.0
 11
13.75000000000006
 21
-35.0
 31
0.0
  0
LINE
  5
116
330
282
100
AcDbEntity
  8
1
 62
     7
100
AcDbLine
 10
14.25000000000006
 20
-32.5
 30
0.0
 11
14.25000000000006
 21
-32.90000000000001
 31
0.0
  0
LINE
  5
117
330
282
100
AcDbEntity
  8
1
 62
     7
100
AcDbLine
 10
14.25000000000006
 20
-32.90000000000001
 30
0.0
 11
19.75000000000006
 21
-32.90000000000001
 31
0.0
  0
LINE
  5
118
330
282
100
AcDbEntity
  8
1
 62
     7
100
AcDbLine
 10
19.75000000000006
 20
-32.90000000000001
 30
0.0
 11
19.75000000000006
 21
-32.5
 31
0.0
  0
LINE
  5
119
330
282
100
AcDbEntity
  8
1
 62
     7
100
AcDbLine
 10
15.50000000000006
 20
-34.65000000000002
 30
0.0
 11
18.50000000000006
 21
-34.65000000000002
 31
0.0
  0
LINE
  5
11A
330
282
100
AcDbEntity
  8
1
 62
     7
100
AcDbLine
 10
15.50000000000006
 20
-32.5
 30
0.0
 11
15.50000000000006
 21
-25.09999999999999
 31
0.0
  0
LINE
  5
11B
330
282
100
AcDbEntity
  8
1
 62
     7
100
AcDbLine
 10
15.50000000000006
 20
-25.09999999999999
 30
0.0
 11
16.09999999999996
 21
-24.49999999999999
 31
0.0
  0
LINE
  5
11C
330
282
100
AcDbEntity
  8
1
 62
     7
100
AcDbLine
 10
16.09999999999996
 20
-24.49999999999999
 30
0.0
 11
17.90000000000009
 21
-24.49999999999999
 31
0.0
  0
LINE
  5
11D
330
282
100
AcDbEntity
  8
1
 62
     7
100
AcDbLine
 10
17.90000000000009
 20
-24.49999999999999
 30
0.0
 11
18.50000000000006
 21
-25.09999999999999
 31
0.0
  0
LINE
  5
11E
330
282
100
AcDbEntity
  8
1
 62
     7
100
AcDbLine
 10
18.50000000000006
 20
-25.09999999999999
 30
0.0
 11
18.50000000000006
 21
-32.5
 31
0.0
  0
LINE
  5
11F
330
282
100
AcDbEntity
  8
1
 62
     7
100
AcDbLine
 10
15.50000000000006
 20
-25.09999999999999
 30
0.0
 11
18.50000000000006
 21
-25.09999999999999
 31
0.0
  0
LINE
  5
120
330
282
100
AcDbEntity
  8
1
 62
     3
100
AcDbLine
 10
16.09999999999996
 20
-24.49999999999999
 30
0.0
 11
16.09999999999996
 21
-30.96076951545867
 31
0.0
  0
LINE
  5
121
330
282
100
AcDbEntity
  8
1
 62
     3
100
AcDbLine
 10
16.09999999999996
 20
-30.96076951545867
 30
0.0
 11
15.50000000000006
 21
-31.99999999999999
 31
0.0
  0
LINE
  5
122
330
282
100
AcDbEntity
  8
1
 62
     3
100
AcDbLine
 10
17.90000000000009
 20
-24.49999999999999
 30
0.0
 11
17.90000000000009
 21
-30.96076951545867
 31
0.0
  0
LINE
  5
123
330
282
100
AcDbEntity
  8
1
 62
     3
100
AcDbLine
 10
17.90000000000009
 20
-30.96076951545867
 30
0.0
 11
18.50000000000006
 21
-31.99999999999999
 31
0.0
  0
LINE
  5
124
330
282
100
AcDbEntity
  8
1
 62
     3
100
AcDbLine
 10
15.50000000000006
 20
-30.96076951545867
 30
0.0
 11
18.50000000000006
 21
-30.96076951545867
 31
0.0
  0
LINE
  5
125
330
282
100
AcDbEntity
  8
1
 62
     7
100
AcDbLine
 10
42.00000000000005
 20
-30.49999999999998
 30
0.0
 11
18.50000000000006
 21
-30.49999999999998
 31
0.0
  0
LINE
  5
126
330
282
100
AcDbEntity
  8
1
 62
     7
100
AcDbLine
 10
43.0
 20
-3.999999999999996
 30
0.0
 11
0.0
 21
-4.000000000000004
 31
0.0
  0
LINE
  5
127
330
282
100
AcDbEntity
  8
1
 62
     7
100
AcDbLine
 10
43.0
 20
3.708099243547815
 30
0.0
 11
0.0
 21
3.708099243547815
 31
0.0
  0
LINE
  5
128
330
282
100
AcDbEntity
  8
1
 62
     7
100
AcDbLine
 10
43.0
 20
5.399999999999976
 30
0.0
 11
0.0
 21
5.399999999999984
 31
0.0
  0
LINE
  5
129
330
282
100
AcDbEntity
  8
1
  6
DASHDOT
 62
     3
100
AcDbLine
 10
101.1726844333393
 20
6.190729117574784
 30
0.0
 11
101.1726844333393
 21
10.28070657358371
 31
0.0
  0
LINE
  5
12A
330
282
100
AcDbEntity
  8
1
 62
     7
100
AcDbLine
 10
18.50000000000006
 20
30.50000000000002
 30
0.0
 11
34.50000000000005
 21
30.5
 31
0.0
  0
LINE
  5
12B
330
282
100
AcDbEntity
  8
1
 62
     7
100
AcDbLine
 10
-78.92403684508163
 20
5.400000000000013
 30
0.0
 11
-78.92403684508163
 21
3.708099243547846
 31
0.0
  0
LINE
  5
12C
330
282
100
AcDbEntity
  8
1
  6
DASHED
 62
     3
100
AcDbLine
 10
-81.92403684508162
 20
5.400000000000013
 30
0.0
 11
-81.92403684508162
 21
7.348469228349526
 31
0.0
  0
LINE
  5
12D
330
282
100
AcDbEntity
  8
1
  6
DASHED
 62
     3
100
AcDbLine
 10
-81.32403684508174
 20
5.400000000000013
 30
0.0
 11
-81.32403684508174
 21
7.445804187594496
 31
0.0
  0
LINE
  5
12E
330
282
100
AcDbEntity
  8
1
  6
DASHDOT
 62
     3
100
AcDbLine
 10
114.1726844333397
 20
12.39709784617289
 30
0.0
 11
114.1726844333394
 21
37.86569181618868
 31
0.0
  0
LINE
  5
12F
330
282
100
AcDbEntity
  8
1
 62
     7
100
AcDbLine
 10
-45.6740368450816
 20
-0.5000000000000046
 30
0.0
 11
-45.17758312275673
 21
-0.5000000000000046
 31
0.0
  0
LINE
  5
130
330
282
100
AcDbEntity
  8
1
 62
     7
100
AcDbLine
 10
-45.6740368450816
 20
0.4999999999999958
 30
0.0
 11
-45.6740368450816
 21
-0.5000000000000046
 31
0.0
  0
LINE
  5
131
330
282
100
AcDbEntity
  8
1
 62
     7
100
AcDbLine
 10
-45.17758312275673
 20
0.4999999999999958
 30
0.0
 11
-45.6740368450816
 21
0.4999999999999958
 31
0.0
  0
LINE
  5
132
330
282
100
AcDbEntity
  8
1
 62
     7
100
AcDbLine
 10
115.6726844333392
 20
34.65000000000012
 30
0.0
 11
112.6726844333391
 21
34.64999999999983
 31
0.0
  0
LINE
  5
133
330
282
100
AcDbEntity
  8
1
 62
     7
100
AcDbLine
 10
111.4226844333394
 20
32.89999999999973
 30
0.0
 11
111.4226844333397
 21
32.49999999999971
 31
0.0
  0
LINE
  5
134
330
282
100
AcDbEntity
  8
1
 62
     7
100
AcDbLine
 10
116.9226844333397
 20
32.90000000000024
 30
0.0
 11
111.4226844333394
 21
32.89999999999973
 31
0.0
  0
LINE
  5
135
330
282
100
AcDbEntity
  8
1
 62
     7
100
AcDbLine
 10
116.9226844333397
 20
32.50000000000027
 30
0.0
 11
116.9226844333397
 21
32.90000000000024
 31
0.0
  0
LINE
  5
136
330
282
100
AcDbEntity
  8
1
 62
     7
100
AcDbLine
 10
110.9226844333397
 20
32.5
 30
0.0
 11
117.4226844333397
 21
32.5
 31
0.0
  0
LINE
  5
137
330
282
100
AcDbEntity
  8
1
 62
     7
100
AcDbLine
 10
110.9226844333397
 20
34.99999999999992
 30
0.0
 11
110.9226844333397
 21
17.9853462124848
 31
0.0
  0
LINE
  5
138
330
282
100
AcDbEntity
  8
1
 62
     7
100
AcDbLine
 10
115.9726844333395
 20
32.5
 30
0.0
 11
115.9726844333395
 21
16.46088075042758
 31
0.0
  0
LINE
  5
139
330
282
100
AcDbEntity
  8
1
 62
     7
100
AcDbLine
 10
112.3726844333394
 20
32.5
 30
0.0
 11
112.3726844333394
 21
16.46088075042758
 31
0.0
  0
LINE
  5
13A
330
282
100
AcDbEntity
  8
1
 62
     7
100
AcDbLine
 10
117.4226844333394
 20
17.98534621248477
 30
0.0
 11
117.4226844333397
 21
34.99999999999995
 31
0.0
  0
LINE
  5
13B
330
282
100
AcDbEntity
  8
1
  6
DASHED
 62
     3
100
AcDbLine
 10
-79.52403684508162
 20
24.5
 30
0.0
 11
-79.52403684508162
 21
30.96076951545867
 31
0.0
  0
LINE
  5
13C
330
282
100
AcDbEntity
  8
1
  6
DASHED
 62
     3
100
AcDbLine
 10
-81.32403684508174
 20
30.96076951545867
 30
0.0
 11
-81.32403684508174
 21
24.5
 31
0.0
  0
LINE
  5
13D
330
282
100
AcDbEntity
  8
1
  6
DASHED
 62
     3
100
AcDbLine
 10
-78.92403684508163
 20
30.96076951545867
 30
0.0
 11
-81.92403684508162
 21
30.96076951545867
 31
0.0
  0
LINE
  5
13E
330
282
100
AcDbEntity
  8
1
  6
DASHED
 62
     3
100
AcDbLine
 10
-81.32403684508174
 20
30.96076951545867
 30
0.0
 11
-81.92403684508162
 21
32.0
 31
0.0
  0
LINE
  5
13F
330
282
100
AcDbEntity
  8
1
  6
DASHED
 62
     3
100
AcDbLine
 10
-79.52403684508162
 20
30.96076951545867
 30
0.0
 11
-78.92403684508163
 21
32.0
 31
0.0
  0
LINE
  5
140
330
282
100
AcDbEntity
  8
1
  6
DASHED
 62
     3
100
AcDbLine
 10
-78.92403684508163
 20
25.09999999999998
 30
0.0
 11
-81.92403684508162
 21
25.09999999999998
 31
0.0
  0
LINE
  5
141
330
282
100
AcDbEntity
  8
1
  6
DASHED
 62
     3
100
AcDbLine
 10
-81.92403684508162
 20
25.09999999999998
 30
0.0
 11
-81.92403684508162
 21
32.5
 31
0.0
  0
LINE
  5
142
330
282
100
AcDbEntity
  8
1
  6
DASHED
 62
     3
100
AcDbLine
 10
-81.32403684508174
 20
24.5
 30
0.0
 11
-81.92403684508162
 21
25.09999999999998
 31
0.0
  0
LINE
  5
143
330
282
100
AcDbEntity
  8
1
  6
DASHED
 62
     3
100
AcDbLine
 10
-79.52403684508162
 20
24.5
 30
0.0
 11
-81.32403684508174
 21
24.5
 31
0.0
  0
LINE
  5
144
330
282
100
AcDbEntity
  8
1
  6
DASHED
 62
     3
100
AcDbLine
 10
-78.92403684508163
 20
25.09999999999998
 30
0.0
 11
-79.52403684508162
 21
24.5
 31
0.0
  0
LINE
  5
145
330
282
100
AcDbEntity
  8
1
  6
DASHED
 62
     3
100
AcDbLine
 10
-78.92403684508163
 20
32.5
 30
0.0
 11
-78.92403684508163
 21
25.09999999999998
 31
0.0
  0
LINE
  5
146
330
282
100
AcDbEntity
  8
1
  6
DASHED
 62
     3
100
AcDbLine
 10
-78.92403684508163
 20
34.65000000000002
 30
0.0
 11
-81.92403684508162
 21
34.65000000000002
 31
0.0
  0
LINE
  5
147
330
282
100
AcDbEntity
  8
1
  6
DASHED
 62
     3
100
AcDbLine
 10
-83.17403684508162
 20
32.5
 30
0.0
 11
-77.67403684508163
 21
32.5
 31
0.0
  0
LINE
  5
148
330
282
100
AcDbEntity
  8
1
  6
DASHED
 62
     3
100
AcDbLine
 10
-83.17403684508162
 20
32.90000000000002
 30
0.0
 11
-83.17403684508162
 21
32.5
 31
0.0
  0
LINE
  5
149
330
282
100
AcDbEntity
  8
1
  6
DASHED
 62
     3
100
AcDbLine
 10
-77.67403684508163
 20
32.90000000000002
 30
0.0
 11
-83.17403684508162
 21
32.90000000000002
 31
0.0
  0
LINE
  5
14A
330
282
100
AcDbEntity
  8
1
  6
DASHED
 62
     3
100
AcDbLine
 10
-77.67403684508163
 20
32.5
 30
0.0
 11
-77.67403684508163
 21
32.90000000000002
 31
0.0
  0
LINE
  5
14B
330
282
100
AcDbEntity
  8
1
 62
     7
100
AcDbLine
 10
-87.77250607343125
 20
-1.500000000000004
 30
0.0
 11
-88.12403684508163
 21
-1.500000000000004
 31
0.0
  0
LINE
  5
14C
330
282
100
AcDbEntity
  8
1
 62
     3
100
AcDbLine
 10
-88.42403684508163
 20
-0.9000000000000101
 30
0.0
 11
-87.86984103267617
 21
-0.8999999999999817
 31
0.0
  0
LINE
  5
14D
330
282
100
AcDbEntity
  8
1
 62
     3
100
AcDbLine
 10
-88.42403684508163
 20
0.9000000000000012
 30
0.0
 11
-87.86984103267617
 21
0.9000000000000012
 31
0.0
  0
LINE
  5
14E
330
282
100
AcDbEntity
  8
1
  6
DASHED
 62
     3
100
AcDbLine
 10
-85.02403684508152
 20
1.499999999999994
 30
0.0
 11
-85.02403684508152
 21
-1.500000000000004
 31
0.0
  0
LINE
  5
14F
330
282
100
AcDbEntity
  8
1
  6
DASHED
 62
     3
100
AcDbLine
 10
-84.42403684508162
 20
-0.9000000000000101
 30
0.0
 11
-85.02403684508152
 21
-1.500000000000004
 31
0.0
  0
LINE
  5
150
330
282
100
AcDbEntity
  8
1
  6
DASHED
 62
     3
100
AcDbLine
 10
-84.42403684508162
 20
0.9000000000000012
 30
0.0
 11
-84.42403684508162
 21
-0.9000000000000101
 31
0.0
  0
LINE
  5
151
330
282
100
AcDbEntity
  8
1
  6
DASHED
 62
     3
100
AcDbLine
 10
-85.02403684508152
 20
1.499999999999994
 30
0.0
 11
-84.42403684508162
 21
0.9000000000000012
 31
0.0
  0
LINE
  5
152
330
282
100
AcDbEntity
  8
1
 62
     7
100
AcDbLine
 10
-88.12403684508163
 20
1.499999999999994
 30
0.0
 11
-87.77250607343125
 21
1.499999999999994
 31
0.0
  0
LINE
  5
153
330
282
100
AcDbEntity
  8
1
 62
     7
100
AcDbLine
 10
-88.42403684508163
 20
-0.9803847577293298
 30
0.0
 11
-88.42403684508163
 21
0.9803847577293208
 31
0.0
  0
LINE
  5
154
330
282
100
AcDbEntity
  8
1
 62
     7
100
AcDbLine
 10
-88.12403684508163
 20
-1.500000000000004
 30
0.0
 11
-88.42403684508163
 21
-0.9803847577293298
 31
0.0
  0
LINE
  5
155
330
282
100
AcDbEntity
  8
1
 62
     7
100
AcDbLine
 10
-88.12403684508163
 20
1.499999999999994
 30
0.0
 11
-88.12403684508163
 21
-1.500000000000004
 31
0.0
  0
LINE
  5
156
330
282
100
AcDbEntity
  8
1
 62
     7
100
AcDbLine
 10
-88.42403684508163
 20
0.9803847577293208
 30
0.0
 11
-88.12403684508163
 21
1.499999999999994
 31
0.0
  0
LINE
  5
157
330
282
100
AcDbEntity
  8
1
  6
DASHED
 62
     3
100
AcDbLine
 10
-87.77250607343125
 20
1.499999999999994
 30
0.0
 11
-84.13213608862943
 21
1.499999999999994
 31
0.0
  0
LINE
  5
158
330
282
100
AcDbEntity
  8
1
  6
DASHED
 62
     3
100
AcDbLine
 10
-87.86984103267617
 20
0.9000000000000012
 30
0.0
 11
-84.32147189906251
 21
0.9000000000000012
 31
0.0
  0
LINE
  5
159
330
282
100
AcDbEntity
  8
1
  6
DASHED
 62
     3
100
AcDbLine
 10
-84.32147189906251
 20
-0.8999999999999817
 30
0.0
 11
-87.86984103267617
 21
-0.8999999999999817
 31
0.0
  0
LINE
  5
15A
330
282
100
AcDbEntity
  8
1
  6
DASHED
 62
     3
100
AcDbLine
 10
-84.13213608862943
 20
-1.500000000000004
 30
0.0
 11
-87.77250607343125
 21
-1.500000000000004
 31
0.0
  0
LINE
  5
15B
330
282
100
AcDbEntity
  8
1
 62
     7
100
AcDbLine
 10
-78.92403684508163
 20
9.100000000000015
 30
0.0
 11
-78.92403684508163
 21
7.348469228349526
 31
0.0
  0
LINE
  5
15C
330
282
100
AcDbEntity
  8
1
 62
     3
100
AcDbLine
 10
-79.52403684508162
 20
7.445804187594496
 30
0.0
 11
-79.52403684508152
 21
9.400000000000016
 31
0.0
  0
LINE
  5
15D
330
282
100
AcDbEntity
  8
1
 62
     3
100
AcDbLine
 10
-81.32403684508174
 20
7.445804187594496
 30
0.0
 11
-81.32403684508174
 21
9.400000000000016
 31
0.0
  0
LINE
  5
15E
330
282
100
AcDbEntity
  8
1
  6
DASHED
 62
     3
100
AcDbLine
 10
-78.92403684508163
 20
6.000000000000006
 30
0.0
 11
-81.92403684508162
 21
6.000000000000006
 31
0.0
  0
LINE
  5
15F
330
282
100
AcDbEntity
  8
1
  6
DASHED
 62
     3
100
AcDbLine
 10
-78.92403684508163
 20
6.000000000000006
 30
0.0
 11
-79.52403684508152
 21
5.400000000000013
 31
0.0
  0
LINE
  5
160
330
282
100
AcDbEntity
  8
1
  6
DASHED
 62
     3
100
AcDbLine
 10
-81.32403684508174
 20
5.400000000000013
 30
0.0
 11
-81.92403684508162
 21
6.000000000000006
 31
0.0
  0
LINE
  5
161
330
282
100
AcDbEntity
  8
1
 62
     7
100
AcDbLine
 10
-81.92403684508162
 20
7.348469228349526
 30
0.0
 11
-81.92403684508162
 21
9.100000000000015
 31
0.0
  0
LINE
  5
162
330
282
100
AcDbEntity
  8
1
 62
     7
100
AcDbLine
 10
-81.40442160281091
 20
9.400000000000016
 30
0.0
 11
-79.44365208735243
 21
9.400000000000016
 31
0.0
  0
LINE
  5
163
330
282
100
AcDbEntity
  8
1
 62
     7
100
AcDbLine
 10
-79.44365208735243
 20
9.400000000000016
 30
0.0
 11
-78.92403684508163
 21
9.100000000000015
 31
0.0
  0
LINE
  5
164
330
282
100
AcDbEntity
  8
1
 62
     7
100
AcDbLine
 10
-78.92403684508163
 20
9.100000000000015
 30
0.0
 11
-81.92403684508162
 21
9.100000000000015
 31
0.0
  0
LINE
  5
165
330
282
100
AcDbEntity
  8
1
 62
     7
100
AcDbLine
 10
-81.92403684508162
 20
9.100000000000015
 30
0.0
 11
-81.40442160281091
 21
9.400000000000016
 31
0.0
  0
LINE
  5
166
330
282
100
AcDbEntity
  8
1
 62
     7
100
AcDbLine
 10
-81.92403684508162
 20
5.400000000000013
 30
0.0
 11
-78.92403684508163
 21
5.400000000000013
 31
0.0
  0
LINE
  5
167
330
282
100
AcDbEntity
  8
1
 62
     7
100
AcDbLine
 10
-81.92403684508162
 20
3.708099243547846
 30
0.0
 11
-81.92403684508162
 21
5.400000000000013
 31
0.0
  0
LINE
  5
168
330
282
100
AcDbEntity
  8
1
  6
DASHED
 62
     3
100
AcDbLine
 10
-79.52403684508162
 20
7.445804187594496
 30
0.0
 11
-79.52403684508152
 21
5.400000000000013
 31
0.0
  0
LINE
  5
169
330
282
100
AcDbEntity
  8
1
  6
DASHED
 62
     3
100
AcDbLine
 10
-78.92403684508163
 20
7.348469228349526
 30
0.0
 11
-78.92403684508163
 21
5.400000000000013
 31
0.0
  0
LINE
  5
16A
330
282
100
AcDbEntity
  8
1
  6
DASHED
 62
     3
100
AcDbLine
 10
-83.67403684508163
 20
35.09985754956847
 30
0.0
 11
-83.67403684508163
 21
32.3370917059651
 31
0.0
  0
LINE
  5
16B
330
282
100
AcDbEntity
  8
1
  6
DASHED
 62
     3
100
AcDbLine
 10
-82.17403684508163
 20
32.45285041410073
 30
0.0
 11
-82.17403684508163
 21
30.44975369358511
 31
0.0
  0
LINE
  5
16C
330
282
100
AcDbEntity
  8
1
  6
DASHED
 62
     3
100
AcDbLine
 10
-50.7942939432088
 20
13.35396329068314
 30
0.0
 11
-48.40166853794038
 21
14.73534621248482
 31
0.0
  0
LINE
  5
16D
330
282
100
AcDbEntity
  8
1
  6
DASHED
 62
     3
100
AcDbLine
 10
-81.32403684508174
 20
-24.5
 30
0.0
 11
-81.32403684508174
 21
-30.96076951545867
 31
0.0
  0
LINE
  5
16E
330
282
100
AcDbEntity
  8
1
  6
DASHED
 62
     3
100
AcDbLine
 10
-79.52403684508152
 20
-30.96076951545867
 30
0.0
 11
-79.52403684508152
 21
-24.49999999999999
 31
0.0
  0
LINE
  5
16F
330
282
100
AcDbEntity
  8
1
  6
DASHED
 62
     3
100
AcDbLine
 10
-81.92403684508162
 20
-30.96076951545867
 30
0.0
 11
-78.92403684508163
 21
-30.96076951545867
 31
0.0
  0
LINE
  5
170
330
282
100
AcDbEntity
  8
1
  6
DASHED
 62
     3
100
AcDbLine
 10
-79.52403684508152
 20
-30.96076951545867
 30
0.0
 11
-78.92403684508163
 21
-31.99999999999999
 31
0.0
  0
LINE
  5
171
330
282
100
AcDbEntity
  8
1
  6
DASHED
 62
     3
100
AcDbLine
 10
-81.32403684508174
 20
-30.96076951545867
 30
0.0
 11
-81.92403684508162
 21
-31.99999999999999
 31
0.0
  0
LINE
  5
172
330
282
100
AcDbEntity
  8
1
  6
DASHED
 62
     3
100
AcDbLine
 10
-81.92403684508162
 20
-25.09999999999998
 30
0.0
 11
-78.92403684508163
 21
-25.09999999999998
 31
0.0
  0
LINE
  5
173
330
282
100
AcDbEntity
  8
1
  6
DASHED
 62
     3
100
AcDbLine
 10
-78.92403684508163
 20
-25.09999999999998
 30
0.0
 11
-78.92403684508163
 21
-32.5
 31
0.0
  0
LINE
  5
174
330
282
100
AcDbEntity
  8
1
  6
DASHED
 62
     3
100
AcDbLine
 10
-79.52403684508152
 20
-24.49999999999999
 30
0.0
 11
-78.92403684508163
 21
-25.09999999999998
 31
0.0
  0
LINE
  5
175
330
282
100
AcDbEntity
  8
1
  6
DASHED
 62
     3
100
AcDbLine
 10
-81.32403684508174
 20
-24.5
 30
0.0
 11
-79.52403684508152
 21
-24.49999999999999
 31
0.0
  0
LINE
  5
176
330
282
100
AcDbEntity
  8
1
  6
DASHED
 62
     3
100
AcDbLine
 10
-81.92403684508162
 20
-25.09999999999998
 30
0.0
 11
-81.32403684508174
 21
-24.5
 31
0.0
  0
LINE
  5
177
330
282
100
AcDbEntity
  8
1
  6
DASHED
 62
     3
100
AcDbLine
 10
-81.92403684508162
 20
-32.5
 30
0.0
 11
-81.92403684508162
 21
-25.09999999999998
 31
0.0
  0
LINE
  5
178
330
282
100
AcDbEntity
  8
1
  6
DASHED
 62
     3
100
AcDbLine
 10
-81.92403684508162
 20
-34.65000000000002
 30
0.0
 11
-78.92403684508163
 21
-34.65000000000002
 31
0.0
  0
LINE
  5
179
330
282
100
AcDbEntity
  8
1
  6
DASHED
 62
     3
100
AcDbLine
 10
-77.67403684508163
 20
-32.5
 30
0.0
 11
-83.17403684508162
 21
-32.5
 31
0.0
  0
LINE
  5
17A
330
282
100
AcDbEntity
  8
1
  6
DASHED
 62
     3
100
AcDbLine
 10
-77.67403684508163
 20
-32.90000000000001
 30
0.0
 11
-77.67403684508163
 21
-32.5
 31
0.0
  0
LINE
  5
17B
330
282
100
AcDbEntity
  8
1
  6
DASHED
 62
     3
100
AcDbLine
 10
-83.17403684508162
 20
-32.90000000000001
 30
0.0
 11
-77.67403684508163
 21
-32.90000000000001
 31
0.0
  0
LINE
  5
17C
330
282
100
AcDbEntity
  8
1
  6
DASHED
 62
     3
100
AcDbLine
 10
-83.17403684508162
 20
-32.5
 30
0.0
 11
-83.17403684508162
 21
-32.90000000000001
 31
0.0
  0
LINE
  5
17D
330
282
100
AcDbEntity
  8
1
  6
DASHED
 62
     3
100
AcDbLine
 10
-77.17403684508163
 20
-35.09985754956844
 30
0.0
 11
-77.17403684508163
 21
-32.33709170596512
 31
0.0
  0
LINE
  5
17E
330
282
100
AcDbEntity
  8
1
  6
DASHED
 62
     3
100
AcDbLine
 10
-78.67403684508163
 20
-32.45285041410073
 30
0.0
 11
-78.67403684508163
 21
-30.44975369358511
 31
0.0
  0
LINE
  5
17F
330
282
100
AcDbEntity
  8
1
  6
DASHED
 62
     3
100
AcDbLine
 10
-110.0537797469545
 20
-13.35396329068312
 30
0.0
 11
-112.4464051522229
 21
-14.73534621248482
 31
0.0
  0
LINE
  5
180
330
282
100
AcDbEntity
  8
1
 62
     7
100
AcDbLine
 10
112.3726844333394
 20
30.49999999999998
 30
0.0
 11
115.9726844333395
 21
30.49999999999998
 31
0.0
  0
LINE
  5
181
330
282
100
AcDbEntity
  8
1
 62
     7
100
AcDbLine
 10
115.6726844333394
 20
32.5
 30
0.0
 11
115.6726844333394
 21
30.49999999999998
 31
0.0
  0
LINE
  5
182
330
282
100
AcDbEntity
  8
1
 62
     3
100
AcDbLine
 10
115.0726844333394
 20
30.96076951545865
 30
0.0
 11
115.6726844333394
 21
31.99999999999999
 31
0.0
  0
LINE
  5
183
330
282
100
AcDbEntity
  8
1
 62
     3
100
AcDbLine
 10
113.2726844333395
 20
30.96076951545865
 30
0.0
 11
112.6726844333395
 21
31.99999999999999
 31
0.0
  0
LINE
  5
184
330
282
100
AcDbEntity
  8
1
 62
     3
100
AcDbLine
 10
115.6726844333394
 20
30.96076951545865
 30
0.0
 11
112.6726844333395
 21
30.96076951545865
 31
0.0
  0
LINE
  5
185
330
282
100
AcDbEntity
  8
1
 62
     7
100
AcDbLine
 10
112.6726844333395
 20
30.49999999999998
 30
0.0
 11
112.6726844333395
 21
32.5
 31
0.0
  0
LINE
  5
186
330
282
100
AcDbEntity
  8
1
 62
     3
100
AcDbLine
 10
113.2726844333395
 20
30.49999999999998
 30
0.0
 11
113.2726844333395
 21
30.96076951545865
 31
0.0
  0
LINE
  5
187
330
282
100
AcDbEntity
  8
1
 62
     3
100
AcDbLine
 10
115.0726844333394
 20
30.49999999999998
 30
0.0
 11
115.0726844333394
 21
30.96076951545865
 31
0.0
  0
LINE
  5
188
330
282
100
AcDbEntity
  8
1
 62
     7
100
AcDbLine
 10
21.00000000000006
 20
29.19999999999999
 30
0.0
 11
21.00000000000006
 21
30.5
 31
0.0
  0
LINE
  5
189
330
282
100
AcDbEntity
  8
1
 62
     7
100
AcDbLine
 10
32.00000000000005
 20
29.19999999999999
 30
0.0
 11
32.00000000000005
 21
30.5
 31
0.0
  0
LINE
  5
18A
330
282
100
AcDbEntity
  8
1
 62
     7
100
AcDbLine
 10
32.00000000000005
 20
-30.5
 30
0.0
 11
32.00000000000005
 21
-29.19999999999999
 31
0.0
  0
LINE
  5
18B
330
282
100
AcDbEntity
  8
1
 62
     7
100
AcDbLine
 10
21.00000000000006
 20
-30.5
 30
0.0
 11
21.00000000000006
 21
-29.19999999999999
 31
0.0
  0
LINE
  5
18C
330
282
100
AcDbEntity
  8
1
 62
     3
100
AcDbLine
 10
105.1726844333394
 20
-0.5684609362998005
 30
0.0
 11
108.1726844333394
 21
-0.5684609362998005
 31
0.0
  0
LINE
  5
18D
330
282
100
AcDbEntity
  8
1
 62
     3
100
AcDbLine
 10
105.1726844333394
 20
-1.068460936299798
 30
0.0
 11
108.1726844333394
 21
-1.068460936299798
 31
0.0
  0
LINE
  5
18E
330
282
100
AcDbEntity
  8
1
 62
     3
100
AcDbLine
 10
105.1726844333394
 20
-1.568460936299798
 30
0.0
 11
108.1726844333394
 21
-1.568460936299798
 31
0.0
  0
LINE
  5
18F
330
282
100
AcDbEntity
  8
1
 62
     3
100
AcDbLine
 10
105.1726844333394
 20
-2.068460936299798
 30
0.0
 11
108.1726844333394
 21
-2.068460936299798
 31
0.0
  0
LINE
  5
190
330
282
100
AcDbEntity
  8
1
 62
     3
100
AcDbLine
 10
105.1726844333394
 20
-2.568460936299798
 30
0.0
 11
108.1726844333394
 21
-2.568460936299798
 31
0.0
  0
LINE
  5
191
330
282
100
AcDbEntity
  8
1
 62
     3
100
AcDbLine
 10
105.1726844333394
 20
-3.068460936299798
 30
0.0
 11
108.1726844333394
 21
-3.068460936299798
 31
0.0
  0
LINE
  5
192
330
282
100
AcDbEntity
  8
1
 62
     3
100
AcDbLine
 10
105.1726844333394
 20
-3.568460936299798
 30
0.0
 11
108.1726844333394
 21
-3.568460936299798
 31
0.0
  0
LINE
  5
193
330
282
100
AcDbEntity
  8
1
 62
     3
100
AcDbLine
 10
105.1726844333394
 20
-4.0684609362998
 30
0.0
 11
108.1726844333394
 21
-4.0684609362998
 31
0.0
  0
LINE
  5
194
330
282
100
AcDbEntity
  8
1
 62
     3
100
AcDbLine
 10
105.1726844333394
 20
-4.5684609362998
 30
0.0
 11
108.1726844333394
 21
-4.5684609362998
 31
0.0
  0
LINE
  5
195
330
282
100
AcDbEntity
  8
1
 62
     3
100
AcDbLine
 10
105.1726844333394
 20
-5.0684609362998
 30
0.0
 11
108.1726844333394
 21
-5.0684609362998
 31
0.0
  0
LINE
  5
196
330
282
100
AcDbEntity
  8
1
 62
     3
100
AcDbLine
 10
105.1726844333394
 20
-5.5684609362998
 30
0.0
 11
108.1726844333394
 21
-5.5684609362998
 31
0.0
  0
LINE
  5
197
330
282
100
AcDbEntity
  8
1
 62
     3
100
AcDbLine
 10
105.1726844333394
 20
-6.0684609362998
 30
0.0
 11
108.1726844333394
 21
-6.0684609362998
 31
0.0
  0
LINE
  5
198
330
282
100
AcDbEntity
  8
1
 62
     3
100
AcDbLine
 10
105.1726844333394
 20
-6.5684609362998
 30
0.0
 11
108.1726844333394
 21
-6.5684609362998
 31
0.0
  0
LINE
  5
199
330
282
100
AcDbEntity
  8
1
 62
     3
100
AcDbLine
 10
105.1726844333394
 20
-7.0684609362998
 30
0.0
 11
108.1726844333394
 21
-7.0684609362998
 31
0.0
  0
LINE
  5
19A
330
282
100
AcDbEntity
  8
1
 62
     3
100
AcDbLine
 10
105.1726844333394
 20
-7.568460936299798
 30
0.0
 11
108.1726844333394
 21
-7.568460936299798
 31
0.0
  0
LINE
  5
19B
330
282
100
AcDbEntity
  8
1
 62
     3
100
AcDbLine
 10
105.1726844333394
 20
-8.0684609362998
 30
0.0
 11
108.1726844333394
 21
-8.0684609362998
 31
0.0
  0
LINE
  5
19C
330
282
100
AcDbEntity
  8
1
 62
     3
100
AcDbLine
 10
105.1726844333394
 20
-8.5684609362998
 30
0.0
 11
108.1726844333394
 21
-8.5684609362998
 31
0.0
  0
LINE
  5
19D
330
282
100
AcDbEntity
  8
1
 62
     3
100
AcDbLine
 10
105.1726844333394
 20
-9.0684609362998
 30
0.0
 11
108.1726844333394
 21
-9.0684609362998
 31
0.0
  0
LINE
  5
19E
330
282
100
AcDbEntity
  8
1
 62
     3
100
AcDbLine
 10
105.1726844333394
 20
-9.5684609362998
 30
0.0
 11
108.1726844333394
 21
-9.5684609362998
 31
0.0
  0
LINE
  5
19F
330
282
100
AcDbEntity
  8
1
 62
     3
100
AcDbLine
 10
105.1726844333394
 20
-10.0684609362998
 30
0.0
 11
108.1726844333394
 21
-10.0684609362998
 31
0.0
  0
LINE
  5
1A0
330
282
100
AcDbEntity
  8
1
 62
     3
100
AcDbLine
 10
105.1726844333394
 20
-10.5684609362998
 30
0.0
 11
108.1726844333394
 21
-10.5684609362998
 31
0.0
  0
LINE
  5
1A1
330
282
100
AcDbEntity
  8
1
 62
     3
100
AcDbLine
 10
105.1726844333394
 20
-11.06846093629979
 30
0.0
 11
108.1726844333394
 21
-11.06846093629979
 31
0.0
  0
LINE
  5
1A2
330
282
100
AcDbEntity
  8
1
 62
     3
100
AcDbLine
 10
105.1726844333394
 20
-11.5684609362998
 30
0.0
 11
108.1726844333394
 21
-11.5684609362998
 31
0.0
  0
LINE
  5
1A3
330
282
100
AcDbEntity
  8
1
 62
     3
100
AcDbLine
 10
105.1726844333394
 20
-12.0684609362998
 30
0.0
 11
108.1726844333394
 21
-12.0684609362998
 31
0.0
  0
LINE
  5
1A4
330
282
100
AcDbEntity
  8
1
 62
     3
100
AcDbLine
 10
105.1726844333394
 20
-12.5684609362998
 30
0.0
 11
108.1726844333394
 21
-12.5684609362998
 31
0.0
  0
LINE
  5
1A5
330
282
100
AcDbEntity
  8
1
 62
     3
100
AcDbLine
 10
105.1726844333394
 20
-13.0684609362998
 30
0.0
 11
108.1726844333394
 21
-13.0684609362998
 31
0.0
  0
LINE
  5
1A6
330
282
100
AcDbEntity
  8
1
 62
     3
100
AcDbLine
 10
105.1726844333394
 20
-13.5684609362998
 30
0.0
 11
108.1726844333394
 21
-13.5684609362998
 31
0.0
  0
LINE
  5
1A7
330
282
100
AcDbEntity
  8
1
 62
     3
100
AcDbLine
 10
105.1726844333394
 20
-14.0684609362998
 30
0.0
 11
108.1726844333394
 21
-14.0684609362998
 31
0.0
  0
LINE
  5
1A8
330
282
100
AcDbEntity
  8
1
 62
     3
100
AcDbLine
 10
105.1726844333394
 20
-14.5684609362998
 30
0.0
 11
108.1726844333394
 21
-14.5684609362998
 31
0.0
  0
LINE
  5
1A9
330
282
100
AcDbEntity
  8
1
 62
     3
100
AcDbLine
 10
105.1726844333394
 20
-15.0684609362998
 30
0.0
 11
108.1726844333394
 21
-15.0684609362998
 31
0.0
  0
LINE
  5
1AA
330
282
100
AcDbEntity
  8
1
 62
     3
100
AcDbLine
 10
105.1726844333394
 20
-15.5684609362998
 30
0.0
 11
108.1726844333394
 21
-15.5684609362998
 31
0.0
  0
LINE
  5
1AB
330
282
100
AcDbEntity
  8
1
 62
     3
100
AcDbLine
 10
105.1726844333394
 20
-16.0684609362998
 30
0.0
 11
108.1726844333394
 21
-16.0684609362998
 31
0.0
  0
LINE
  5
1AC
330
282
100
AcDbEntity
  8
1
 62
     3
100
AcDbLine
 10
105.1726844333394
 20
-16.5684609362998
 30
0.0
 11
108.1726844333394
 21
-16.5684609362998
 31
0.0
  0
LINE
  5
1AD
330
282
100
AcDbEntity
  8
1
 62
     3
100
AcDbLine
 10
105.1726844333394
 20
-17.0684609362998
 30
0.0
 11
108.1726844333394
 21
-17.0684609362998
 31
0.0
  0
LINE
  5
1AE
330
282
100
AcDbEntity
  8
1
 62
     3
100
AcDbLine
 10
105.1726844333394
 20
-17.5684609362998
 30
0.0
 11
108.1726844333394
 21
-17.5684609362998
 31
0.0
  0
LINE
  5
1AF
330
282
100
AcDbEntity
  8
1
 62
     3
100
AcDbLine
 10
105.1726844333394
 20
-18.0684609362998
 30
0.0
 11
108.1726844333394
 21
-18.0684609362998
 31
0.0
  0
LINE
  5
1B0
330
282
100
AcDbEntity
  8
1
 62
     3
100
AcDbLine
 10
105.1726844333394
 20
-18.5684609362998
 30
0.0
 11
108.1726844333394
 21
-18.5684609362998
 31
0.0
  0
LINE
  5
1B1
330
282
100
AcDbEntity
  8
1
 62
     3
100
AcDbLine
 10
105.1726844333394
 20
-19.0684609362998
 30
0.0
 11
108.1726844333394
 21
-19.0684609362998
 31
0.0
  0
LINE
  5
1B2
330
282
100
AcDbEntity
  8
1
 62
     3
100
AcDbLine
 10
105.1726844333394
 20
-19.5684609362998
 30
0.0
 11
108.1726844333394
 21
-19.5684609362998
 31
0.0
  0
LINE
  5
1B3
330
282
100
AcDbEntity
  8
1
 62
     3
100
AcDbLine
 10
105.1726844333394
 20
-20.0684609362998
 30
0.0
 11
108.1726844333394
 21
-20.0684609362998
 31
0.0
  0
LINE
  5
1B4
330
282
100
AcDbEntity
  8
1
 62
     3
100
AcDbLine
 10
105.1726844333394
 20
-20.56846093629979
 30
0.0
 11
108.1726844333394
 21
-20.56846093629979
 31
0.0
  0
LINE
  5
1B5
330
282
100
AcDbEntity
  8
1
 62
     3
100
AcDbLine
 10
105.1726844333394
 20
-21.0684609362998
 30
0.0
 11
108.1726844333394
 21
-21.0684609362998
 31
0.0
  0
LINE
  5
1B6
330
282
100
AcDbEntity
  8
1
 62
     3
100
AcDbLine
 10
105.1726844333394
 20
-21.5684609362998
 30
0.0
 11
108.1726844333394
 21
-21.5684609362998
 31
0.0
  0
LINE
  5
1B7
330
282
100
AcDbEntity
  8
1
 62
     3
100
AcDbLine
 10
105.1726844333394
 20
-22.0684609362998
 30
0.0
 11
108.1726844333394
 21
-22.0684609362998
 31
0.0
  0
LINE
  5
1B8
330
282
100
AcDbEntity
  8
1
 62
     3
100
AcDbLine
 10
105.1726844333394
 20
-22.5684609362998
 30
0.0
 11
108.1726844333394
 21
-22.5684609362998
 31
0.0
  0
LINE
  5
1B9
330
282
100
AcDbEntity
  8
1
 62
     3
100
AcDbLine
 10
105.1726844333394
 20
-23.06846093629979
 30
0.0
 11
108.1726844333394
 21
-23.06846093629979
 31
0.0
  0
LINE
  5
1BA
330
282
100
AcDbEntity
  8
1
 62
     3
100
AcDbLine
 10
105.1726844333394
 20
-23.5684609362998
 30
0.0
 11
108.1726844333394
 21
-23.5684609362998
 31
0.0
  0
LINE
  5
1BB
330
282
100
AcDbEntity
  8
1
 62
     3
100
AcDbLine
 10
105.1726844333394
 20
-24.0684609362998
 30
0.0
 11
108.1726844333394
 21
-24.0684609362998
 31
0.0
  0
LINE
  5
1BC
330
282
100
AcDbEntity
  8
1
 62
     3
100
AcDbLine
 10
105.1726844333394
 20
-24.5684609362998
 30
0.0
 11
108.1726844333394
 21
-24.5684609362998
 31
0.0
  0
LINE
  5
1BD
330
282
100
AcDbEntity
  8
1
 62
     3
100
AcDbLine
 10
105.1726844333394
 20
-25.0684609362998
 30
0.0
 11
108.1726844333394
 21
-25.0684609362998
 31
0.0
  0
LINE
  5
1BE
330
282
100
AcDbEntity
  8
1
 62
     3
100
AcDbLine
 10
105.1726844333394
 20
-25.5684609362998
 30
0.0
 11
108.1726844333394
 21
-25.5684609362998
 31
0.0
  0
LINE
  5
1BF
330
282
100
AcDbEntity
  8
1
 62
     3
100
AcDbLine
 10
105.1726844333394
 20
-26.0684609362998
 30
0.0
 11
108.1726844333394
 21
-26.0684609362998
 31
0.0
  0
LINE
  5
1C0
330
282
100
AcDbEntity
  8
1
 62
     3
100
AcDbLine
 10
105.1726844333394
 20
-26.5684609362998
 30
0.0
 11
108.1726844333394
 21
-26.5684609362998
 31
0.0
  0
LINE
  5
1C1
330
282
100
AcDbEntity
  8
1
 62
     3
100
AcDbLine
 10
105.1726844333394
 20
-27.0684609362998
 30
0.0
 11
108.1726844333394
 21
-27.0684609362998
 31
0.0
  0
LINE
  5
1C2
330
282
100
AcDbEntity
  8
1
 62
     3
100
AcDbLine
 10
105.1726844333394
 20
-27.5684609362998
 30
0.0
 11
108.1726844333394
 21
-27.5684609362998
 31
0.0
  0
LINE
  5
1C3
330
282
100
AcDbEntity
  8
1
 62
     3
100
AcDbLine
 10
105.1726844333394
 20
-28.0684609362998
 30
0.0
 11
108.1726844333394
 21
-28.0684609362998
 31
0.0
  0
LINE
  5
1C4
330
282
100
AcDbEntity
  8
1
 62
     3
100
AcDbLine
 10
105.1726844333394
 20
-28.5684609362998
 30
0.0
 11
108.1726844333394
 21
-28.5684609362998
 31
0.0
  0
LINE
  5
1C5
330
282
100
AcDbEntity
  8
1
 62
     3
100
AcDbLine
 10
105.1726844333394
 20
-29.0684609362998
 30
0.0
 11
108.1726844333394
 21
-29.0684609362998
 31
0.0
  0
LINE
  5
1C6
330
282
100
AcDbEntity
  8
1
 62
     3
100
AcDbLine
 10
105.1726844333394
 20
-29.5684609362998
 30
0.0
 11
108.1726844333394
 21
-29.5684609362998
 31
0.0
  0
LINE
  5
1C7
330
282
100
AcDbEntity
  8
1
 62
     3
100
AcDbLine
 10
105.1726844333394
 20
-30.0684609362998
 30
0.0
 11
108.1726844333394
 21
-30.0684609362998
 31
0.0
  0
LINE
  5
1C8
330
282
100
AcDbEntity
  8
1
 62
     3
100
AcDbLine
 10
105.1726844333394
 20
-30.5684609362998
 30
0.0
 11
108.1726844333394
 21
-30.5684609362998
 31
0.0
  0
LINE
  5
1C9
330
282
100
AcDbEntity
  8
1
 62
     3
100
AcDbLine
 10
105.1726844333394
 20
-31.0684609362998
 30
0.0
 11
108.1726844333394
 21
-31.0684609362998
 31
0.0
  0
LINE
  5
1CA
330
282
100
AcDbEntity
  8
1
 62
     3
100
AcDbLine
 10
105.1726844333394
 20
-31.5684609362998
 30
0.0
 11
108.1726844333394
 21
-31.5684609362998
 31
0.0
  0
LINE
  5
1CB
330
282
100
AcDbEntity
  8
1
 62
     3
100
AcDbLine
 10
105.1726844333394
 20
-32.0684609362998
 30
0.0
 11
108.1726844333394
 21
-32.0684609362998
 31
0.0
  0
LINE
  5
1CC
330
282
100
AcDbEntity
  8
1
 62
     3
100
AcDbLine
 10
105.1726844333394
 20
-32.5684609362998
 30
0.0
 11
108.1726844333394
 21
-32.5684609362998
 31
0.0
  0
LINE
  5
1CD
330
282
100
AcDbEntity
  8
1
 62
     3
100
AcDbLine
 10
105.1726844333394
 20
-33.0684609362998
 30
0.0
 11
108.1726844333394
 21
-33.0684609362998
 31
0.0
  0
LINE
  5
1CE
330
282
100
AcDbEntity
  8
1
 62
     3
100
AcDbLine
 10
105.1726844333394
 20
-33.5684609362998
 30
0.0
 11
108.1726844333394
 21
-33.5684609362998
 31
0.0
  0
LINE
  5
1CF
330
282
100
AcDbEntity
  8
1
 62
     3
100
AcDbLine
 10
105.1726844333394
 20
-34.0684609362998
 30
0.0
 11
108.1726844333394
 21
-34.0684609362998
 31
0.0
  0
LINE
  5
1D0
330
282
100
AcDbEntity
  8
1
 62
     3
100
AcDbLine
 10
105.1726844333394
 20
-34.5684609362998
 30
0.0
 11
108.1726844333394
 21
-34.5684609362998
 31
0.0
  0
LINE
  5
1D1
330
282
100
AcDbEntity
  8
1
 62
     3
100
AcDbLine
 10
105.1726844333394
 20
-35.0684609362998
 30
0.0
 11
108.1726844333394
 21
-35.0684609362998
 31
0.0
  0
LINE
  5
1D2
330
282
100
AcDbEntity
  8
1
 62
     3
100
AcDbLine
 10
105.1726844333394
 20
34.9315390637002
 30
0.0
 11
108.1726844333394
 21
34.9315390637002
 31
0.0
  0
LINE
  5
1D3
330
282
100
AcDbEntity
  8
1
 62
     3
100
AcDbLine
 10
105.1726844333394
 20
34.4315390637002
 30
0.0
 11
108.1726844333394
 21
34.4315390637002
 31
0.0
  0
LINE
  5
1D4
330
282
100
AcDbEntity
  8
1
 62
     3
100
AcDbLine
 10
105.1726844333394
 20
33.9315390637002
 30
0.0
 11
108.1726844333394
 21
33.9315390637002
 31
0.0
  0
LINE
  5
1D5
330
282
100
AcDbEntity
  8
1
 62
     3
100
AcDbLine
 10
105.1726844333394
 20
33.43153906370019
 30
0.0
 11
108.1726844333394
 21
33.43153906370019
 31
0.0
  0
LINE
  5
1D6
330
282
100
AcDbEntity
  8
1
 62
     3
100
AcDbLine
 10
105.1726844333394
 20
32.9315390637002
 30
0.0
 11
108.1726844333394
 21
32.9315390637002
 31
0.0
  0
LINE
  5
1D7
330
282
100
AcDbEntity
  8
1
 62
     3
100
AcDbLine
 10
105.1726844333394
 20
32.4315390637002
 30
0.0
 11
108.1726844333394
 21
32.4315390637002
 31
0.0
  0
LINE
  5
1D8
330
282
100
AcDbEntity
  8
1
 62
     3
100
AcDbLine
 10
105.1726844333394
 20
31.9315390637002
 30
0.0
 11
108.1726844333394
 21
31.9315390637002
 31
0.0
  0
LINE
  5
1D9
330
282
100
AcDbEntity
  8
1
 62
     3
100
AcDbLine
 10
105.1726844333394
 20
31.4315390637002
 30
0.0
 11
108.1726844333394
 21
31.4315390637002
 31
0.0
  0
LINE
  5
1DA
330
282
100
AcDbEntity
  8
1
 62
     3
100
AcDbLine
 10
105.1726844333394
 20
30.93153906370019
 30
0.0
 11
108.1726844333394
 21
30.93153906370019
 31
0.0
  0
LINE
  5
1DB
330
282
100
AcDbEntity
  8
1
 62
     3
100
AcDbLine
 10
105.1726844333394
 20
30.4315390637002
 30
0.0
 11
108.1726844333394
 21
30.4315390637002
 31
0.0
  0
LINE
  5
1DC
330
282
100
AcDbEntity
  8
1
 62
     3
100
AcDbLine
 10
105.1726844333394
 20
29.9315390637002
 30
0.0
 11
108.1726844333394
 21
29.9315390637002
 31
0.0
  0
LINE
  5
1DD
330
282
100
AcDbEntity
  8
1
 62
     3
100
AcDbLine
 10
105.1726844333394
 20
29.43153906370019
 30
0.0
 11
108.1726844333394
 21
29.43153906370019
 31
0.0
  0
LINE
  5
1DE
330
282
100
AcDbEntity
  8
1
 62
     3
100
AcDbLine
 10
105.1726844333394
 20
28.9315390637002
 30
0.0
 11
108.1726844333394
 21
28.9315390637002
 31
0.0
  0
LINE
  5
1DF
330
282
100
AcDbEntity
  8
1
 62
     3
100
AcDbLine
 10
105.1726844333394
 20
28.43153906370019
 30
0.0
 11
108.1726844333394
 21
28.43153906370019
 31
0.0
  0
LINE
  5
1E0
330
282
100
AcDbEntity
  8
1
 62
     3
100
AcDbLine
 10
105.1726844333394
 20
27.9315390637002
 30
0.0
 11
108.1726844333394
 21
27.9315390637002
 31
0.0
  0
LINE
  5
1E1
330
282
100
AcDbEntity
  8
1
 62
     3
100
AcDbLine
 10
105.1726844333394
 20
27.4315390637002
 30
0.0
 11
108.1726844333394
 21
27.4315390637002
 31
0.0
  0
LINE
  5
1E2
330
282
100
AcDbEntity
  8
1
 62
     3
100
AcDbLine
 10
105.1726844333394
 20
26.9315390637002
 30
0.0
 11
108.1726844333394
 21
26.9315390637002
 31
0.0
  0
LINE
  5
1E3
330
282
100
AcDbEntity
  8
1
 62
     3
100
AcDbLine
 10
105.1726844333394
 20
26.4315390637002
 30
0.0
 11
108.1726844333394
 21
26.4315390637002
 31
0.0
  0
LINE
  5
1E4
330
282
100
AcDbEntity
  8
1
 62
     3
100
AcDbLine
 10
105.1726844333394
 20
25.93153906370019
 30
0.0
 11
108.1726844333394
 21
25.93153906370019
 31
0.0
  0
LINE
  5
1E5
330
282
100
AcDbEntity
  8
1
 62
     3
100
AcDbLine
 10
105.1726844333394
 20
25.4315390637002
 30
0.0
 11
108.1726844333394
 21
25.4315390637002
 31
0.0
  0
LINE
  5
1E6
330
282
100
AcDbEntity
  8
1
 62
     3
100
AcDbLine
 10
105.1726844333394
 20
24.9315390637002
 30
0.0
 11
108.1726844333394
 21
24.9315390637002
 31
0.0
  0
LINE
  5
1E7
330
282
100
AcDbEntity
  8
1
 62
     3
100
AcDbLine
 10
105.1726844333394
 20
24.4315390637002
 30
0.0
 11
108.1726844333394
 21
24.4315390637002
 31
0.0
  0
LINE
  5
1E8
330
282
100
AcDbEntity
  8
1
 62
     3
100
AcDbLine
 10
105.1726844333394
 20
23.9315390637002
 30
0.0
 11
108.1726844333394
 21
23.9315390637002
 31
0.0
  0
LINE
  5
1E9
330
282
100
AcDbEntity
  8
1
 62
     3
100
AcDbLine
 10
105.1726844333394
 20
23.43153906370019
 30
0.0
 11
108.1726844333394
 21
23.43153906370019
 31
0.0
  0
LINE
  5
1EA
330
282
100
AcDbEntity
  8
1
 62
     3
100
AcDbLine
 10
105.1726844333394
 20
22.9315390637002
 30
0.0
 11
108.1726844333394
 21
22.9315390637002
 31
0.0
  0
LINE
  5
1EB
330
282
100
AcDbEntity
  8
1
 62
     3
100
AcDbLine
 10
105.1726844333394
 20
22.43153906370019
 30
0.0
 11
108.1726844333394
 21
22.43153906370019
 31
0.0
  0
LINE
  5
1EC
330
282
100
AcDbEntity
  8
1
 62
     3
100
AcDbLine
 10
105.1726844333394
 20
21.9315390637002
 30
0.0
 11
108.1726844333394
 21
21.9315390637002
 31
0.0
  0
LINE
  5
1ED
330
282
100
AcDbEntity
  8
1
 62
     3
100
AcDbLine
 10
105.1726844333394
 20
21.4315390637002
 30
0.0
 11
108.1726844333394
 21
21.4315390637002
 31
0.0
  0
LINE
  5
1EE
330
282
100
AcDbEntity
  8
1
 62
     3
100
AcDbLine
 10
105.1726844333394
 20
20.93153906370019
 30
0.0
 11
108.1726844333394
 21
20.93153906370019
 31
0.0
  0
LINE
  5
1EF
330
282
100
AcDbEntity
  8
1
 62
     3
100
AcDbLine
 10
105.1726844333394
 20
20.4315390637002
 30
0.0
 11
108.1726844333394
 21
20.4315390637002
 31
0.0
  0
LINE
  5
1F0
330
282
100
AcDbEntity
  8
1
 62
     3
100
AcDbLine
 10
105.1726844333394
 20
19.9315390637002
 30
0.0
 11
108.1726844333394
 21
19.9315390637002
 31
0.0
  0
LINE
  5
1F1
330
282
100
AcDbEntity
  8
1
 62
     3
100
AcDbLine
 10
105.1726844333394
 20
19.43153906370018
 30
0.0
 11
108.1726844333394
 21
19.43153906370018
 31
0.0
  0
LINE
  5
1F2
330
282
100
AcDbEntity
  8
1
 62
     3
100
AcDbLine
 10
105.1726844333394
 20
18.93153906370018
 30
0.0
 11
108.1726844333394
 21
18.93153906370018
 31
0.0
  0
LINE
  5
1F3
330
282
100
AcDbEntity
  8
1
 62
     3
100
AcDbLine
 10
105.1726844333394
 20
18.43153906370018
 30
0.0
 11
108.1726844333394
 21
18.43153906370018
 31
0.0
  0
LINE
  5
1F4
330
282
100
AcDbEntity
  8
1
 62
     3
100
AcDbLine
 10
105.1726844333394
 20
17.9315390637002
 30
0.0
 11
108.1726844333394
 21
17.9315390637002
 31
0.0
  0
LINE
  5
1F5
330
282
100
AcDbEntity
  8
1
 62
     3
100
AcDbLine
 10
105.1726844333394
 20
17.4315390637002
 30
0.0
 11
108.1726844333394
 21
17.4315390637002
 31
0.0
  0
LINE
  5
1F6
330
282
100
AcDbEntity
  8
1
 62
     3
100
AcDbLine
 10
105.1726844333394
 20
16.9315390637002
 30
0.0
 11
108.1726844333394
 21
16.9315390637002
 31
0.0
  0
LINE
  5
1F7
330
282
100
AcDbEntity
  8
1
 62
     3
100
AcDbLine
 10
105.1726844333394
 20
16.43153906370018
 30
0.0
 11
108.1726844333394
 21
16.43153906370018
 31
0.0
  0
LINE
  5
1F8
330
282
100
AcDbEntity
  8
1
 62
     3
100
AcDbLine
 10
105.1726844333394
 20
15.93153906370019
 30
0.0
 11
108.1726844333394
 21
15.93153906370019
 31
0.0
  0
LINE
  5
1F9
330
282
100
AcDbEntity
  8
1
 62
     3
100
AcDbLine
 10
105.1726844333394
 20
15.4315390637002
 30
0.0
 11
108.1726844333394
 21
15.4315390637002
 31
0.0
  0
LINE
  5
1FA
330
282
100
AcDbEntity
  8
1
 62
     3
100
AcDbLine
 10
105.1726844333394
 20
14.9315390637002
 30
0.0
 11
108.1726844333394
 21
14.9315390637002
 31
0.0
  0
LINE
  5
1FB
330
282
100
AcDbEntity
  8
1
 62
     3
100
AcDbLine
 10
105.1726844333394
 20
14.4315390637002
 30
0.0
 11
108.1726844333394
 21
14.4315390637002
 31
0.0
  0
LINE
  5
1FC
330
282
100
AcDbEntity
  8
1
 62
     3
100
AcDbLine
 10
105.1726844333394
 20
13.9315390637002
 30
0.0
 11
108.1726844333394
 21
13.9315390637002
 31
0.0
  0
LINE
  5
1FD
330
282
100
AcDbEntity
  8
1
 62
     3
100
AcDbLine
 10
105.1726844333394
 20
13.43153906370019
 30
0.0
 11
108.1726844333394
 21
13.43153906370019
 31
0.0
  0
LINE
  5
1FE
330
282
100
AcDbEntity
  8
1
 62
     3
100
AcDbLine
 10
105.1726844333394
 20
12.9315390637002
 30
0.0
 11
108.1726844333394
 21
12.9315390637002
 31
0.0
  0
LINE
  5
1FF
330
282
100
AcDbEntity
  8
1
 62
     3
100
AcDbLine
 10
105.1726844333394
 20
12.4315390637002
 30
0.0
 11
108.1726844333394
 21
12.4315390637002
 31
0.0
  0
LINE
  5
200
330
282
100
AcDbEntity
  8
1
 62
     3
100
AcDbLine
 10
105.1726844333394
 20
11.9315390637002
 30
0.0
 11
108.1726844333394
 21
11.9315390637002
 31
0.0
  0
LINE
  5
201
330
282
100
AcDbEntity
  8
1
 62
     3
100
AcDbLine
 10
105.1726844333394
 20
11.4315390637002
 30
0.0
 11
108.1726844333394
 21
11.4315390637002
 31
0.0
  0
LINE
  5
202
330
282
100
AcDbEntity
  8
1
 62
     3
100
AcDbLine
 10
105.1726844333394
 20
10.93153906370019
 30
0.0
 11
108.1726844333394
 21
10.93153906370019
 31
0.0
  0
LINE
  5
203
330
282
100
AcDbEntity
  8
1
 62
     3
100
AcDbLine
 10
105.1726844333394
 20
10.43153906370019
 30
0.0
 11
108.1726844333394
 21
10.43153906370019
 31
0.0
  0
LINE
  5
204
330
282
100
AcDbEntity
  8
1
 62
     3
100
AcDbLine
 10
105.1726844333394
 20
9.931539063700205
 30
0.0
 11
108.1726844333394
 21
9.931539063700205
 31
0.0
  0
LINE
  5
205
330
282
100
AcDbEntity
  8
1
 62
     3
100
AcDbLine
 10
105.1726844333394
 20
9.431539063700205
 30
0.0
 11
108.1726844333394
 21
9.431539063700205
 31
0.0
  0
LINE
  5
206
330
282
100
AcDbEntity
  8
1
 62
     3
100
AcDbLine
 10
105.1726844333394
 20
8.931539063700203
 30
0.0
 11
108.1726844333394
 21
8.931539063700203
 31
0.0
  0
LINE
  5
207
330
282
100
AcDbEntity
  8
1
 62
     3
100
AcDbLine
 10
105.1726844333394
 20
8.431539063700203
 30
0.0
 11
108.1726844333394
 21
8.431539063700203
 31
0.0
  0
LINE
  5
208
330
282
100
AcDbEntity
  8
1
 62
     3
100
AcDbLine
 10
105.1726844333394
 20
7.931539063700201
 30
0.0
 11
108.1726844333394
 21
7.931539063700201
 31
0.0
  0
LINE
  5
209
330
282
100
AcDbEntity
  8
1
 62
     3
100
AcDbLine
 10
105.1726844333394
 20
7.431539063700201
 30
0.0
 11
108.1726844333394
 21
7.431539063700201
 31
0.0
  0
LINE
  5
20A
330
282
100
AcDbEntity
  8
1
 62
     3
100
AcDbLine
 10
105.1726844333394
 20
6.931539063700201
 30
0.0
 11
108.1726844333394
 21
6.931539063700201
 31
0.0
  0
LINE
  5
20B
330
282
100
AcDbEntity
  8
1
 62
     3
100
AcDbLine
 10
105.1726844333394
 20
6.431539063700201
 30
0.0
 11
108.1726844333394
 21
6.431539063700201
 31
0.0
  0
LINE
  5
20C
330
282
100
AcDbEntity
  8
1
 62
     3
100
AcDbLine
 10
105.1726844333394
 20
5.931539063700201
 30
0.0
 11
108.1726844333394
 21
5.931539063700201
 31
0.0
  0
LINE
  5
20D
330
282
100
AcDbEntity
  8
1
 62
     3
100
AcDbLine
 10
105.1726844333394
 20
5.431539063700201
 30
0.0
 11
108.1726844333394
 21
5.431539063700201
 31
0.0
  0
LINE
  5
20E
330
282
100
AcDbEntity
  8
1
 62
     3
100
AcDbLine
 10
105.1726844333394
 20
4.931539063700203
 30
0.0
 11
108.1726844333394
 21
4.931539063700203
 31
0.0
  0
LINE
  5
20F
330
282
100
AcDbEntity
  8
1
 62
     3
100
AcDbLine
 10
105.1726844333394
 20
4.431539063700203
 30
0.0
 11
108.1726844333394
 21
4.431539063700203
 31
0.0
  0
LINE
  5
210
330
282
100
AcDbEntity
  8
1
 62
     3
100
AcDbLine
 10
105.1726844333394
 20
3.931539063700202
 30
0.0
 11
108.1726844333394
 21
3.931539063700202
 31
0.0
  0
LINE
  5
211
330
282
100
AcDbEntity
  8
1
 62
     3
100
AcDbLine
 10
105.1726844333394
 20
3.431539063700202
 30
0.0
 11
108.1726844333394
 21
3.431539063700202
 31
0.0
  0
LINE
  5
212
330
282
100
AcDbEntity
  8
1
 62
     3
100
AcDbLine
 10
105.1726844333394
 20
2.931539063700202
 30
0.0
 11
108.1726844333394
 21
2.931539063700202
 31
0.0
  0
LINE
  5
213
330
282
100
AcDbEntity
  8
1
 62
     3
100
AcDbLine
 10
105.1726844333394
 20
2.431539063700201
 30
0.0
 11
108.1726844333394
 21
2.431539063700201
 31
0.0
  0
LINE
  5
214
330
282
100
AcDbEntity
  8
1
 62
     3
100
AcDbLine
 10
105.1726844333394
 20
1.931539063700203
 30
0.0
 11
108.1726844333394
 21
1.931539063700203
 31
0.0
  0
LINE
  5
215
330
282
100
AcDbEntity
  8
1
 62
     3
100
AcDbLine
 10
105.1726844333394
 20
1.431539063700203
 30
0.0
 11
108.1726844333394
 21
1.431539063700203
 31
0.0
  0
LINE
  5
216
330
282
100
AcDbEntity
  8
1
 62
     3
100
AcDbLine
 10
105.1726844333394
 20
0.9315390637002032
 30
0.0
 11
108.1726844333394
 21
0.9315390637002032
 31
0.0
  0
ARC
  5
217
330
282
100
AcDbEntity
  8
1
 62
     7
100
AcDbCircle
 10
35.7800000000001
 20
13.22
 30
0.0
 40
0.7800000000000013
100
AcDbArc
 50
90.0
 51
180.0
  0
ARC
  5
218
330
282
100
AcDbEntity
  8
1
 62
     7
100
AcDbCircle
 10
41.21999999999996
 20
8.280000000000008
 30
0.0
 40
0.7800000000000022
100
AcDbArc
 50
270.0
 51
0.0
  0
ARC
  5
219
330
282
100
AcDbEntity
  8
1
 62
     7
100
AcDbCircle
 10
35.7800000000001
 20
8.279999999999997
 30
0.0
 40
0.7800000000000367
100
AcDbArc
 50
180.0
 51
270.0
  0
ARC
  5
21A
330
282
100
AcDbEntity
  8
1
 62
     7
100
AcDbCircle
 10
41.21999999999996
 20
13.22
 30
0.0
 40
0.7800000000000864
100
AcDbArc
 50
0.0
 51
90.0
  0
ARC
  5
21B
330
282
100
AcDbEntity
  8
1
 62
     7
100
AcDbCircle
 10
41.21999999999996
 20
-13.22
 30
0.0
 40
0.7799999999999994
100
AcDbArc
 50
270.0
 51
0.0
  0
ARC
  5
21C
330
282
100
AcDbEntity
  8
1
 62
     7
100
AcDbCircle
 10
35.7800000000001
 20
-8.279999999999997
 30
0.0
 40
0.7800000000000022
100
AcDbArc
 50
90.0
 51
180.0
  0
ARC
  5
21D
330
282
100
AcDbEntity
  8
1
 62
     7
100
AcDbCircle
 10
41.21999999999996
 20
-8.279999999999997
 30
0.0
 40
0.7800000000000864
100
AcDbArc
 50
0.0
 51
90.0
  0
ARC
  5
21E
330
282
100
AcDbEntity
  8
1
 62
     7
100
AcDbCircle
 10
35.7800000000001
 20
-13.22
 30
0.0
 40
0.7800000000000367
100
AcDbArc
 50
180.0
 51
270.0
  0
ARC
  5
21F
330
282
100
AcDbEntity
  8
1
 62
     7
100
AcDbCircle
 10
17.21999999999986
 20
8.279999999999997
 30
0.0
 40
0.7800000000000022
100
AcDbArc
 50
270.0
 51
0.0
  0
ARC
  5
220
330
282
100
AcDbEntity
  8
1
 62
     7
100
AcDbCircle
 10
11.77999999999997
 20
13.22
 30
0.0
 40
0.7800000000000101
100
AcDbArc
 50
90.0
 51
180.0
  0
ARC
  5
221
330
282
100
AcDbEntity
  8
1
 62
     7
100
AcDbCircle
 10
17.21999999999986
 20
13.22
 30
0.0
 40
0.7800000000001397
100
AcDbArc
 50
0.0
 51
90.0
  0
ARC
  5
222
330
282
100
AcDbEntity
  8
1
 62
     7
100
AcDbCircle
 10
11.77999999999997
 20
8.279999999999997
 30
0.0
 40
0.7799999999999692
100
AcDbArc
 50
180.0
 51
270.0
  0
ARC
  5
223
330
282
100
AcDbEntity
  8
1
 62
     7
100
AcDbCircle
 10
17.21999999999986
 20
-13.22
 30
0.0
 40
0.7799999999999994
100
AcDbArc
 50
270.0
 51
0.0
  0
ARC
  5
224
330
282
100
AcDbEntity
  8
1
 62
     7
100
AcDbCircle
 10
11.77999999999997
 20
-8.279999999999997
 30
0.0
 40
0.7800000000000022
100
AcDbArc
 50
90.0
 51
180.0
  0
ARC
  5
225
330
282
100
AcDbEntity
  8
1
 62
     7
100
AcDbCircle
 10
17.21999999999986
 20
-8.279999999999997
 30
0.0
 40
0.7800000000001397
100
AcDbArc
 50
0.0
 51
90.0
  0
ARC
  5
226
330
282
100
AcDbEntity
  8
1
 62
     7
100
AcDbCircle
 10
11.77999999999997
 20
-13.22
 30
0.0
 40
0.7799999999999692
100
AcDbArc
 50
180.0
 51
270.0
  0
ARC
  5
227
330
282
100
AcDbEntity
  8
1
 62
     7
100
AcDbCircle
 10
-87.14211921840002
 20
-9.84261577276988
 30
0.0
 40
1.279999999999902
100
AcDbArc
 50
233.3140583749809
 51
309.1232600470052
  0
ARC
  5
228
330
282
100
AcDbEntity
  8
1
 62
     7
100
AcDbCircle
 10
-73.70595447176332
 20
-9.842615772769896
 30
0.0
 40
1.279999999999952
100
AcDbArc
 50
230.8767399529878
 51
306.6859416250165
  0
ARC
  5
229
330
282
100
AcDbEntity
  8
1
 62
     7
100
AcDbCircle
 10
114.2226844333396
 20
16.46088075042758
 30
0.0
 40
1.750000000000019
100
AcDbArc
 50
286.1604346432843
 51
0.0
  0
ARC
  5
22A
330
282
100
AcDbEntity
  8
1
 62
     7
100
AcDbCircle
 10
114.1726844333394
 20
17.9853462124848
 30
0.0
 40
3.249999999999801
100
AcDbArc
 50
180.0
 51
0.0
  0
ARC
  5
22B
330
282
100
AcDbEntity
  8
1
 62
     7
100
AcDbCircle
 10
114.1226844333395
 20
16.46088075042758
 30
0.0
 40
1.75
100
AcDbArc
 50
180.0
 51
253.8395653567329
  0
ARC
  5
22C
330
282
100
AcDbEntity
  8
1
  6
DASHDOT
 62
     3
100
AcDbCircle
 10
-80.42403684508164
 20
-0.0000000000000044
 30
0.0
 40
23.00000000000006
100
AcDbArc
 50
293.566338976643
 51
306.4336610233563
  0
ARC
  5
22D
330
282
100
AcDbEntity
  8
1
  6
DASHDOT
 62
     3
100
AcDbCircle
 10
-80.42403684508164
 20
-0.0000000000000044
 30
0.0
 40
23.00000000000003
100
AcDbArc
 50
173.5663389766433
 51
186.4336610233564
  0
ARC
  5
22E
330
282
100
AcDbEntity
  8
1
  6
DASHDOT
 62
     3
100
AcDbCircle
 10
-80.42403684508164
 20
-0.0000000000000044
 30
0.0
 40
22.99999999999998
100
AcDbArc
 50
53.56633897664355
 51
66.43366102335683
  0
ARC
  5
22F
330
282
100
AcDbEntity
  8
1
 62
     7
100
AcDbCircle
 10
35.84600143495885
 20
32.14714388211348
 30
0.0
 40
3.000000000000092
100
AcDbArc
 50
14.53385610839316
 51
56.54149947555428
  0
ARC
  5
230
330
282
100
AcDbEntity
  8
1
 62
     7
100
AcDbCircle
 10
36.15399856504115
 20
32.14714388211348
 30
0.0
 40
3.000000000000003
100
AcDbArc
 50
123.4585005244439
 51
165.4661438916062
  0
ARC
  5
231
330
282
100
AcDbEntity
  8
1
 62
     7
100
AcDbCircle
 10
17.15399856504097
 20
32.14714388211361
 30
0.0
 40
2.999999999999801
100
AcDbArc
 50
123.4585005244424
 51
165.4661438916078
  0
ARC
  5
232
330
282
100
AcDbEntity
  8
1
 62
     7
100
AcDbCircle
 10
16.84600143495919
 20
32.14714388211361
 30
0.0
 40
2.999999999999733
100
AcDbArc
 50
14.53385610839241
 51
56.54149947555833
  0
ARC
  5
233
330
282
100
AcDbEntity
  8
1
 62
     7
100
AcDbCircle
 10
17.15399856504097
 20
-32.14714388211362
 30
0.0
 40
2.99999999999978
100
AcDbArc
 50
194.5338561083919
 51
236.5414994755574
  0
ARC
  5
234
330
282
100
AcDbEntity
  8
1
 62
     7
100
AcDbCircle
 10
16.84600143495919
 20
-32.14714388211362
 30
0.0
 40
2.999999999999768
100
AcDbArc
 50
303.4585005244417
 51
345.4661438916076
  0
ARC
  5
235
330
282
100
AcDbEntity
  8
1
 62
     7
100
AcDbCircle
 10
-80.42403684508164
 20
-0.0000000000000044
 30
0.0
 40
4.000000000000016
100
AcDbArc
 50
270.0
 51
67.97568716295796
  0
ARC
  5
236
330
282
100
AcDbEntity
  8
1
 62
     7
100
AcDbCircle
 10
-80.42403684508164
 20
-0.0000000000000044
 30
0.0
 40
4.000000000000017
100
AcDbArc
 50
112.0243128370421
 51
270.0
  0
ARC
  5
237
330
282
100
AcDbEntity
  8
1
 62
     7
100
AcDbCircle
 10
-80.42403684508164
 20
-0.0000000000000044
 30
0.0
 40
35.00000000000007
100
AcDbArc
 50
359.1814610210268
 51
0.818538978973094
  0
ARC
  5
238
330
282
100
AcDbEntity
  8
1
 62
     7
100
AcDbCircle
 10
-80.42403684508164
 20
-0.0000000000000044
 30
0.0
 40
35.24999999999985
100
AcDbArc
 50
0.8127333472064275
 51
359.1872666527935
  0
ARC
  5
239
330
282
100
AcDbEntity
  8
1
 62
     7
100
AcDbCircle
 10
114.3266829983807
 20
32.14714388211348
 30
0.0
 40
3.000000000000087
100
AcDbArc
 50
123.4585005244523
 51
165.4661438916118
  0
ARC
  5
23A
330
282
100
AcDbEntity
  8
1
 62
     7
100
AcDbCircle
 10
114.018685868298
 20
32.14714388211323
 30
0.0
 40
3.000000000000587
100
AcDbArc
 50
14.53385610840024
 51
56.54149947555999
  0
ARC
  5
23B
330
282
100
AcDbEntity
  8
1
 62
     7
100
AcDbCircle
 10
-88.67897617675811
 20
-11.52892477860324
 30
0.0
 40
6.343676533041625
100
AcDbArc
 50
338.9817040500507
 51
0.0
  0
ARC
  5
23C
330
282
100
AcDbEntity
  8
1
 62
     7
100
AcDbCircle
 10
-72.16909751340506
 20
-11.52892477860326
 30
0.0
 40
6.3436765330419
100
AcDbArc
 50
180.0
 51
201.0182959499484
  0
ARC
  5
23D
330
282
100
AcDbEntity
  8
1
 62
     7
100
AcDbCircle
 10
-80.42403684508164
 20
-0.8250000000000071
 30
0.0
 40
12.52499999999987
100
AcDbArc
 50
306.6859416250176
 51
233.3140583749816
  0
ARC
  5
23E
330
282
100
AcDbEntity
  8
1
 62
     7
100
AcDbCircle
 10
-83.89529964371638
 20
-13.83451416111626
 30
0.0
 40
3.865589382512908
100
AcDbArc
 50
90.0
 51
129.1232600470185
  0
ARC
  5
23F
330
282
100
AcDbEntity
  8
1
 62
     7
100
AcDbCircle
 10
-76.95277404644693
 20
-13.83451416111642
 30
0.0
 40
3.865589382513208
100
AcDbArc
 50
50.87673995298501
 51
90.0
  0
ARC
  5
240
330
282
100
AcDbEntity
  8
1
 62
     7
100
AcDbCircle
 10
-83.89529964371638
 20
-11.52892477860324
 30
0.0
 40
1.559999999999889
100
AcDbArc
 50
0.0
 51
90.0
  0
ARC
  5
241
330
282
100
AcDbEntity
  8
1
 62
     7
100
AcDbCircle
 10
-76.95277404644693
 20
-11.52892477860323
 30
0.0
 40
1.560000000000002
100
AcDbArc
 50
90.0
 51
180.0
  0
ARC
  5
242
330
282
100
AcDbEntity
  8
1
  6
DASHED
 62
     3
100
AcDbCircle
 10
-80.27003828004051
 20
32.14714388211348
 30
0.0
 40
3.000000000000011
100
AcDbArc
 50
123.4585005244438
 51
165.4661438916062
  0
ARC
  5
243
330
282
100
AcDbEntity
  8
1
  6
DASHED
 62
     3
100
AcDbCircle
 10
-80.57803541012294
 20
32.14714388211348
 30
0.0
 40
3.000000000000204
100
AcDbArc
 50
14.53385610839274
 51
56.54149947555247
  0
ARC
  5
244
330
282
100
AcDbEntity
  8
1
  6
DASHED
 62
     3
100
AcDbCircle
 10
-80.42403684508164
 20
-0.0000000000000044
 30
0.0
 40
32.49999999999992
100
AcDbArc
 50
24.26082952273327
 51
95.73917047726677
  0
ARC
  5
245
330
282
100
AcDbEntity
  8
1
  6
DASHED
 62
     3
100
AcDbCircle
 10
-80.57803541012274
 20
-32.14714388211348
 30
0.0
 40
3.00000000000002
100
AcDbArc
 50
303.4585005244442
 51
345.4661438916062
  0
ARC
  5
246
330
282
100
AcDbEntity
  8
1
  6
DASHED
 62
     3
100
AcDbCircle
 10
-80.27003828004032
 20
-32.14714388211348
 30
0.0
 40
3.000000000000175
100
AcDbArc
 50
194.5338561083927
 51
236.5414994755528
  0
ARC
  5
247
330
282
100
AcDbEntity
  8
1
  6
DASHED
 62
     3
100
AcDbCircle
 10
-80.42403684508164
 20
-0.0000000000000044
 30
0.0
 40
32.50000000000007
100
AcDbArc
 50
204.2608295227331
 51
275.7391704772667
  0
CIRCLE
  5
248
330
282
100
AcDbEntity
  8
1
 62
     7
100
AcDbCircle
 10
4.0
 20
0.0
 30
0.0
 40
1.5
  0
CIRCLE
  5
249
330
282
100
AcDbEntity
  8
1
 62
     3
100
AcDbCircle
 10
4.0
 20
0.0
 30
0.0
 40
0.9000000000000003
  0
CIRCLE
  5
24A
330
282
100
AcDbEntity
  8
1
 62
     7
100
AcDbCircle
 10
-68.92403684508161
 20
-19.91858428704205
 30
0.0
 40
0.9000000000000341
  0
CIRCLE
  5
24B
330
282
100
AcDbEntity
  8
1
 62
     3
100
AcDbCircle
 10
-68.92403684508161
 20
-19.91858428704205
 30
0.0
 40
1.500000000000085
  0
CIRCLE
  5
24C
330
282
100
AcDbEntity
  8
1
 62
     7
100
AcDbCircle
 10
-103.4240368450817
 20
-0.0000000000000044
 30
0.0
 40
0.8999999999999062
  0
CIRCLE
  5
24D
330
282
100
AcDbEntity
  8
1
 62
     3
100
AcDbCircle
 10
-103.4240368450817
 20
-0.0000000000000044
 30
0.0
 40
1.4999999999999
  0
CIRCLE
  5
24E
330
282
100
AcDbEntity
  8
1
  6
DASHED
 62
     3
100
AcDbCircle
 10
-80.42403684508164
 20
-0.0000000000000044
 30
0.0
 40
30.49999999999998
  0
CIRCLE
  5
24F
330
282
100
AcDbEntity
  8
1
 62
     7
100
AcDbCircle
 10
38.50000000000005
 20
10.75
 30
0.0
 40
1.949999999999995
  0
CIRCLE
  5
250
330
282
100
AcDbEntity
  8
1
 62
     7
100
AcDbCircle
 10
38.50000000000005
 20
-10.74999999999999
 30
0.0
 40
1.949999999999995
  0
CIRCLE
  5
251
330
282
100
AcDbEntity
  8
1
 62
     7
100
AcDbCircle
 10
14.5
 20
10.74999999999999
 30
0.0
 40
1.950000000000049
  0
CIRCLE
  5
252
330
282
100
AcDbEntity
  8
1
 62
     7
100
AcDbCircle
 10
14.5
 20
-10.74999999999999
 30
0.0
 40
1.950000000000049
  0
CIRCLE
  5
253
330
282
100
AcDbEntity
  8
1
 62
     7
100
AcDbCircle
 10
-84.22863297704973
 20
-11.86225811193656
 30
0.0
 40
0.9999999999999291
  0
CIRCLE
  5
254
330
282
100
AcDbEntity
  8
1
 62
     7
100
AcDbCircle
 10
-76.61944071311355
 20
-11.86225811193656
 30
0.0
 40
1.000000000000041
  0
CIRCLE
  5
255
330
282
100
AcDbEntity
  8
1
 62
     7
100
AcDbCircle
 10
-80.42403684508164
 20
-0.0000000000000044
 30
0.0
 40
14.0
  0
CIRCLE
  5
256
330
282
100
AcDbEntity
  8
1
 62
     7
100
AcDbCircle
 10
-80.42403684508164
 20
-0.0000000000000044
 30
0.0
 40
14.0
  0
CIRCLE
  5
257
330
282
100
AcDbEntity
  8
1
 62
     7
100
AcDbCircle
 10
-68.92403684508161
 20
19.9185842870421
 30
0.0
 40
0.8999999999999062
  0
CIRCLE
  5
258
330
282
100
AcDbEntity
  8
1
 62
     3
100
AcDbCircle
 10
-68.92403684508161
 20
19.9185842870421
 30
0.0
 40
1.499999999999956
  0
CIRCLE
  5
259
330
282
100
AcDbEntity
  8
1
 62
     7
100
AcDbCircle
 10
-80.42403684508164
 20
-0.0000000000000044
 30
0.0
 40
7.499999999999987
  0
TEXT
  5
25B
330
282
100
AcDbEntity
  8
1
 62
     7
100
AcDbText
 10
-113.7340390382589
 20
54.384399748591
 30
0.0
 40
3.5
  1
PHT 5D
 41
0.9
  7
SIMPLEX
 72
     1
 11
-105.1840390382589
 21
54.384399748591
 31
0.0
100
AcDbText
  0
ENDSEC
  0
SECTION
  2
OBJECTS
  0
DICTIONARY
  5
26E
330
0
100
AcDbDictionary
281
     1
  3
ACAD_COLOR
350
27D
  3
ACAD_GROUP
350
26F
  3
ACAD_LAYOUT
350
27B
  3
ACAD_MATERIAL
350
27C
  3
ACAD_MLINESTYLE
350
278
  3
ACAD_PLOTSETTINGS
350
27A
  3
ACAD_PLOTSTYLENAME
350
270
  0
DICTIONARY
  5
27D
102
{ACAD_REACTORS
330
26E
102
}
330
26E
100
AcDbDictionary
281
     1
  0
DICTIONARY
  5
26F
102
{ACAD_REACTORS
330
26E
102
}
330
26E
100
AcDbDictionary
281
     1
  0
DICTIONARY
  5
27B
102
{ACAD_REACTORS
330
26E
102
}
330
26E
100
AcDbDictionary
281
     1
  3
Layout1
350
281
  3
Model
350
285
  0
DICTIONARY
  5
27C
102
{ACAD_REACTORS
330
26E
102
}
330
26E
100
AcDbDictionary
281
     1
  0
DICTIONARY
  5
278
102
{ACAD_REACTORS
330
26E
102
}
330
26E
100
AcDbDictionary
281
     1
  3
Standard
350
279
  0
DICTIONARY
  5
27A
102
{ACAD_REACTORS
330
26E
102
}
330
26E
100
AcDbDictionary
281
     1
  0
ACDBDICTIONARYWDFLT
  5
270
102
{ACAD_REACTORS
330
26E
102
}
330
26E
100
AcDbDictionary
281
     1
  3
Normal
350
271
100
AcDbDictionaryWithDefault
340
271
  0
LAYOUT
  5
281
102
{ACAD_REACTORS
330
27B
102
}
330
27B
100
AcDbPlotSettings
  1

  2
\\Ogura1\HP Color LaserJet 4600 PCL 5c
  4

  6

 40
0.0
 41
0.0
 42
0.0
 43
0.0
 44
0.0
 45
0.0
 46
0.0
 47
0.0
 48
0.0
 49
0.0
140
0.0
141
0.0
142
1.0
143
1.0
 70
   688
 72
     0
 73
     0
 74
     5
  7

 75
    16
147
1.0
 76
     0
 77
     2
 78
   300
148
0.0
149
0.0
100
AcDbLayout
  1
Layout1
 70
     1
 71
     1
 10
0.0
 20
0.0
 11
12.0
 21
9.0
 12
0.0
 22
0.0
 32
0.0
 14
1.000000000000000E+20
 24
1.000000000000000E+20
 34
1.000000000000000E+20
 15
-1.000000000000000E+20
 25
-1.000000000000000E+20
 35
-1.000000000000000E+20
146
0.0
 13
0.0
 23
0.0
 33
0.0
 16
1.0
 26
0.0
 36
0.0
 17
0.0
 27
1.0
 37
0.0
 76
     0
330
27E
  0
LAYOUT
  5
285
102
{ACAD_REACTORS
330
27B
102
}
330
27B
100
AcDbPlotSettings
  1

  2
\\Ogura1\HP Color LaserJet 4600 PCL 5c
  4

  6

 40
0.0
 41
0.0
 42
0.0
 43
0.0
 44
0.0
 45
0.0
 46
0.0
 47
0.0
 48
0.0
 49
0.0
140
0.0
141
0.0
142
1.0
143
1.0
 70
  1712
 72
     0
 73
     0
 74
     0
  7

 75
     0
147
1.0
 76
     0
 77
     2
 78
   300
148
0.0
149
0.0
100
AcDbLayout
  1
Model
 70
     1
 71
     0
 10
0.0
 20
0.0
 11
12.0
 21
9.0
 12
0.0
 22
0.0
 32
0.0
 14
0.0
 24
0.0
 34
0.0
 15
0.0
 25
0.0
 35
0.0
146
0.0
 13
0.0
 23
0.0
 33
0.0
 16
1.0
 26
0.0
 36
0.0
 17
0.0
 27
1.0
 37
0.0
 76
     0
330
282
  0
MLINESTYLE
  5
279
102
{ACAD_REACTORS
330
278
102
}
330
278
100
AcDbMlineStyle
  2
STANDARD
 70
     0
  3

 62
   256
 51
90.0
 52
90.0
 71
     2
 49
0.5
 62
   256
  6
BYLAYER
 49
-0.5
 62
   256
  6
BYLAYER
  0
ACDBPLACEHOLDER
  5
271
102
{ACAD_REACTORS
330
270
102
}
330
270
  0
ENDSEC
  0
EOF
