  0
SECTION
  2
HEADER
  9
$ACADVER
  1
AC1009
  9
$INSBASE
 10
0
 20
0
  9
$EXTMIN
 10
-43.67286982315829
 20
23.4729398663697
  9
$EXTMAX
 10
205.3271301768417
 20
87.10000000000002
  9
$LIMMIN
 10
-43.67286982315829
 20
23.4729398663697
  9
$LIMMAX
 10
205.3271301768417
 20
87.10000000000002
  9
$VIEWCTR
 10
10
 20
10
  9
$VIEWSIZE
 40
10
  9
$SNAPMODE
 70
0
  9
$SNAPUNIT
 10
1
 20
1
  9
$SNAPBASE
 10
0
 20
0
  9
$SNAPANG
 50
0
  9
$SNAPSTYLE
 70
0
  9
$SNAPISOPAIR
 70
0
  9
$GRIDMODE
 70
0
  9
$GRIDUNIT
 10
0
 20
0
  9
$ORTHOMODE
 70
0
  9
$REGENMODE
 70
1
  9
$FILLMODE
 70
1
  9
$QTEXTMODE
 70
0
  9
$DRAGMODE
 70
2
  9
$LTSCALE
 40
1
  9
$OSMODE
 70
0
  9
$ATTMODE
 70
1
  9
$TEXTSIZE
 40
3.5
  9
$TRACEWID
 40
0.5
  9
$TEXTSTYLE
  7
STANDARD
  9
$CLAYER
  8
0
  9
$CELTYPE
  6
BYLAYER
  9
$CECOLOR
 62
256
  9
$DIMSCALE
 40
1
  9
$DIMASZ
 40
0.18
  9
$DIMEXO
 40
0.0625
  9
$DIMDLI
 40
0.38
  9
$DIMRND
 40
0
  9
$DIMDLE
 40
0
  9
$DIMEXE
 40
0.18
  9
$DIMTP
 40
0
  9
$DIMTM
 40
0
  9
$DIMTXT
 40
0.18
  9
$DIMCEN
 40
0.09
  9
$DIMTSZ
 40
0
  9
$DIMTOL
 70
0
  9
$DIMLIM
 70
0
  9
$DIMTIH
 70
1
  9
$DIMTOH
 70
1
  9
$DIMSE1
 70
0
  9
$DIMSE2
 70
0
  9
$DIMTAD
 70
0
  9
$DIMZIN
 70
0
  9
$DIMBLK
  1

  9
$DIMASO
 70
1
  9
$DIMSHO
 70
1
  9
$DIMPOST
  1

  9
$DIMAPOST
  1

  9
$DIMALT
 70
0
  9
$DIMALTD
 70
2
  9
$DIMALTF
 40
25.4
  9
$DIMLFAC
 40
1
  9
$DIMTOFL
 70
0
  9
$DIMTVP
 40
0
  9
$DIMTIX
 70
0
  9
$DIMSOXD
 70
0
  9
$DIMSAH
 70
0
  9
$DIMBLK1
  1

  9
$DIMBLK2
  1

  9
$DIMSTYLE
  2
*UNNAMED
  9
$DIMCLRD
 70
0
  9
$DIMCLRE
 70
0
  9
$DIMCLRT
 70
0
  9
$DIMTFAC
 40
1
  9
$DIMGAP
 40
0.09
  9
$LUNITS
 70
2
  9
$LUPREC
 70
4
  9
$AXISMODE
 70
0
  9
$AXISUNIT
 10
0
 20
0
  9
$SKETCHINC
 40
0.1
  9
$FILLETRAD
 40
2
  9
$AUNITS
 70
0
  9
$AUPREC
 70
0
  9
$MENU
  1
ACAD
  9
$ELEVATION
 40
0
  9
$THICKNESS
 40
0
  9
$VIEWDIR
 10
0
 20
0
 30
1
  9
$LIMCHECK
 70
0
  9
$BLIPMODE
 70
1
  9
$CHAMFERA
 40
0
  9
$CHAMFERB
 40
0
  9
$FASTZOOM
 70
1
  9
$SKPOLY
 70
0
  9
$ANGBASE
 50
0
  9
$ANGDIR
 70
0
  9
$PDMODE
 70
0
  9
$PDSIZE
 40
0
  9
$PLINEWID
 40
0
  9
$COORDS
 70
2
  0
ENDSEC
  0
SECTION
  2
TABLES
  0
TABLE
  2
DIMSTYLE
 70
0
  0
ENDTAB
  0
TABLE
  2
LTYPE
 70
9
  0
LTYPE
  2
CONTINUOUS
 70
64
  3
Solid line
 72
65
 73
0
 40
0
  0
LTYPE
  2
BORDER
 70
64
  3
__ __ . __ __ .
 72
65
 73
6
 40
11.46710526315789
 49
3.276315789473684
 49
-1.638157894736842
 49
3.276315789473684
 49
-1.638157894736842
 49
0
 49
-1.638157894736842
  0
LTYPE
  2
CENTER
 70
64
  3
____ _ ____ _
 72
65
 73
4
 40
13.10526315789474
 49
8.190789473684211
 49
-1.638157894736842
 49
1.638157894736842
 49
-1.638157894736842
  0
LTYPE
  2
DASHDOT
 70
64
  3
__ . __ . __ .
 72
65
 73
4
 40
6.552631578947368
 49
3.276315789473684
 49
-1.638157894736842
 49
0
 49
-1.638157894736842
  0
LTYPE
  2
DASHED
 70
64
  3
__ __ __ __ __
 72
65
 73
2
 40
4.914473684210526
 49
3.276315789473684
 49
-1.638157894736842
  0
LTYPE
  2
DIVIDE
 70
64
  3
__ . . __ . . 
 72
65
 73
6
 40
8.190789473684211
 49
3.276315789473684
 49
-1.638157894736842
 49
0
 49
-1.638157894736842
 49
0
 49
-1.638157894736842
  0
LTYPE
  2
DOT
 70
64
  3
..............
 72
65
 73
4
 40
3.276315789473684
 49
0
 49
-1.638157894736842
 49
0
 49
-1.638157894736842
  0
LTYPE
  2
HIDDEN
 70
64
  3
_ _ _ _ _ _ _
 72
65
 73
2
 40
2.457236842105263
 49
1.638157894736842
 49
-0.819078947368421
  0
LTYPE
  2
PHANTOM
 70
64
  3
_____ _ _ _____ _ _ 
 72
65
 73
6
 40
16.38157894736842
 49
8.190789473684211
 49
-1.638157894736842
 49
1.638157894736842
 49
-1.638157894736842
 49
1.638157894736842
 49
-1.638157894736842
  0
ENDTAB
  0
TABLE
  2
LAYER
 70
3
  0
LAYER
  2
1
 70
0
 62
7
  6
CONTINUOUS
  0
LAYER
  2
0
 70
0
 62
7
  6
CONTINUOUS
  0
ENDTAB
  0
TABLE
  2
STYLE
 70
4
  0
STYLE
  2
STANDARD
 70
0
 40
0
 41
1
 50
0
 71
0
 42
3.5
  3
txt
  4

  0
STYLE
  2
SIMPLEX
 70
0
 40
0
 41
1
 50
0
 71
0
 42
3.5
  3
simplex
  4

  0
STYLE
  2
COMPLEX
 70
0
 40
0
 41
1
 50
0
 71
0
 42
3.5
  3
complex
  4

  0
STYLE
  2
ITALIC
 70
0
 40
0
 41
1
 50
0
 71
0
 42
3.5
  3
italic
  4

  0
ENDTAB
  0
TABLE
  2
VIEW
 70
0
  0
ENDTAB
  0
ENDSEC
  0
SECTION
  2
BLOCKS
  0
BLOCK
  8
1
  2
*X0
 70
1
 10
0
 20
0
 30
0
  0
LINE
  8
1
 62
3
 10
83.62713017684169
 20
45.1079136690647
 30
0
 11
88.62713017684169
 21
45.1079136690647
 31
0
  0
LINE
  8
1
 62
3
 10
83.62713017684169
 20
44.1079136690647
 30
0
 11
88.62713017684169
 21
44.1079136690647
 31
0
  0
LINE
  8
1
 62
3
 10
83.62713017684169
 20
43.1079136690647
 30
0
 11
88.62713017684169
 21
43.1079136690647
 31
0
  0
LINE
  8
1
 62
3
 10
83.62713017684169
 20
42.1079136690647
 30
0
 11
88.62713017684169
 21
42.1079136690647
 31
0
  0
ENDBLK
  8
0
  0
ENDSEC
  0
SECTION
  2
ENTITIES
  0
INSERT
  8
1
  2
*X0
 10
0
 20
0
 30
0
  0
LINE
  8
1
 62
3
  6
DASHDOT
 10
-43.67286982315829
 20
41.47293986636973
 30
0
 11
-7.672869823158322
 21
41.47293986636973
 31
0
  0
LINE
  8
1
 62
3
  6
DASHDOT
 10
-25.67286982315832
 20
59.4729398663697
 30
0
 11
-25.67286982315832
 21
23.4729398663697
 31
0
  0
LINE
  8
1
 62
3
  6
DASHDOT
 10
21.32713017684168
 20
41.47293986636973
 30
0
 11
205.3271301768417
 21
41.47293986636973
 31
0
  0
LINE
  8
1
 62
3
  6
DASHDOT
 10
-14.63104592490673
 20
35.09793986636969
 30
0
 11
-18.5281602419367
 21
37.34793986636969
 31
0
  0
LINE
  8
1
 62
3
  6
DASHDOT
 10
-36.7146937214099
 20
35.09793986636971
 30
0
 11
-32.8175794043799
 21
37.3479398663697
 31
0
  0
LINE
  8
1
 62
7
 10
23.32713017684168
 20
45.47293986636968
 30
0
 11
23.32713017684168
 21
37.47293986636967
 31
0
  0
LINE
  8
1
 62
7
 10
88.62713017684169
 20
45.4729398663697
 30
0
 11
88.62713017684169
 21
41.47293986636973
 31
0
  0
LINE
  8
1
 62
7
 10
83.62713017684169
 20
45.4729398663697
 30
0
 11
83.62713017684169
 21
41.47293986636973
 31
0
  0
LINE
  8
1
 62
3
 10
73.32713017684168
 20
50.47293986636973
 30
0
 11
78.82713017684168
 21
50.47293986636973
 31
0
  0
LINE
  8
1
 62
3
 10
73.32713017684168
 20
53.47293986636973
 30
0
 11
78.82713017684168
 21
53.47293986636973
 31
0
  0
LINE
  8
1
 62
7
 10
73.32713017684168
 20
51.02269606810785
 30
0
 11
78.82713017684168
 21
51.02269606810785
 31
0
  0
LINE
  8
1
 62
7
 10
78.82713017684168
 20
49.47293986636973
 30
0
 11
78.82713017684168
 21
54.47293986636973
 31
0
  0
LINE
  8
1
 62
7
 10
73.32713017684168
 20
57.47293986636973
 30
0
 11
73.32713017684168
 21
48.97293986636973
 31
0
  0
LINE
  8
1
 62
7
 10
73.32713017684168
 20
52.92318366463161
 30
0
 11
78.82713017684168
 21
52.92318366463161
 31
0
  0
LINE
  8
1
 62
3
  6
DASHDOT
 10
71.90381753685571
 20
51.97293986636973
 30
0
 11
79.73377332472981
 21
51.97293986636973
 31
0
  0
LINE
  8
1
 62
7
 10
71.32713017684168
 20
48.97293986636973
 30
0
 11
73.32713017684168
 21
48.97293986636973
 31
0
  0
LINE
  8
1
 62
7
 10
99.32713017684168
 20
45.47293986636967
 30
0
 11
99.32713017684168
 21
57.47293986636973
 31
0
  0
LINE
  8
1
 62
7
 10
73.32713017684168
 20
57.47293986636973
 30
0
 11
99.32713017684168
 21
57.47293986636973
 31
0
  0
LINE
  8
1
 62
7
 10
81.32713017684168
 20
55.97293986636973
 30
0
 11
81.32713017684168
 21
54.47293986636973
 31
0
  0
LINE
  8
1
 62
7
 10
81.32713017684168
 20
55.97293986636973
 30
0
 11
99.32713017684174
 21
55.97293986636899
 31
0
  0
LINE
  8
1
 62
7
 10
81.32713017684168
 20
54.47293986636973
 30
0
 11
78.82713017684168
 21
54.47293986636973
 31
0
  0
LINE
  8
1
 62
7
 10
71.32713017684168
 20
47.97293986636973
 30
0
 11
74.82713017684168
 21
47.97293986636973
 31
0
  0
LINE
  8
1
 62
7
 10
71.32713017684168
 20
48.97293986636973
 30
0
 11
71.32713017684168
 21
45.47293986636973
 31
0
  0
LINE
  8
1
 62
7
 10
91.32713017684174
 20
55.97293986636899
 30
0
 11
91.32713017684168
 21
54.47293986636973
 31
0
  0
LINE
  8
1
 62
7
 10
91.32713017684168
 20
54.47293986636973
 30
0
 11
93.82713017684168
 21
54.47293986636973
 31
0
  0
LINE
  8
1
 62
7
 10
93.82713017684168
 20
54.47293986636973
 30
0
 11
93.82713017684168
 21
49.47293986636973
 31
0
  0
LINE
  8
1
 62
7
 10
97.82713017684168
 20
49.47293986636973
 30
0
 11
92.82713017684168
 21
49.47293986636973
 31
0
  0
LINE
  8
1
 62
7
 10
74.82713017684168
 20
49.47293986636973
 30
0
 11
79.82713017684168
 21
49.47293986636973
 31
0
  0
LINE
  8
1
 62
7
 10
92.82713017684168
 20
46.97293986636973
 30
0
 11
91.82713017684168
 21
46.97293986636973
 31
0
  0
LINE
  8
1
 62
7
 10
91.82713017684168
 20
46.97293986636973
 30
0
 11
91.82713017684168
 21
51.97293986636973
 31
0
  0
LINE
  8
1
 62
7
 10
91.82713017684168
 20
51.97293986636973
 30
0
 11
92.82713017684168
 21
52.97293986636973
 31
0
  0
LINE
  8
1
 62
7
 10
92.82713017684168
 20
52.97293986636973
 30
0
 11
92.82713017684168
 21
53.97293986636973
 31
0
  0
LINE
  8
1
 62
7
 10
92.82713017684168
 20
53.97293986636973
 30
0
 11
92.4271301768417
 21
53.97293986636973
 31
0
  0
LINE
  8
1
 62
7
 10
92.4271301768417
 20
53.97293986636973
 30
0
 11
90.82713017684168
 21
52.3729398663697
 31
0
  0
LINE
  8
1
 62
7
 10
90.82713017684168
 20
52.3729398663697
 30
0
 11
90.82713017684168
 21
55.12293986636976
 31
0
  0
LINE
  8
1
 62
7
 10
90.82713017684168
 20
55.12293986636976
 30
0
 11
81.82713017684145
 21
55.12293986636976
 31
0
  0
LINE
  8
1
 62
7
 10
97.82713017684168
 20
47.97293986636973
 30
0
 11
99.32713017684174
 21
47.97293986636899
 31
0
  0
LINE
  8
1
 62
7
 10
97.82713017684168
 20
49.47293986636973
 30
0
 11
97.82713017684168
 21
45.47293986636973
 31
0
  0
LINE
  8
1
 62
7
 10
81.82713017684145
 20
55.12293986636976
 30
0
 11
81.82713017684145
 21
52.3729398663697
 31
0
  0
LINE
  8
1
 62
7
 10
81.82713017684145
 20
52.3729398663697
 30
0
 11
80.22713017684143
 21
53.97293986636973
 31
0
  0
LINE
  8
1
 62
7
 10
80.22713017684143
 20
53.97293986636973
 30
0
 11
79.82713017684145
 21
53.97293986636973
 31
0
  0
LINE
  8
1
 62
7
 10
79.82713017684145
 20
53.97293986636973
 30
0
 11
79.82713017684145
 21
52.97293986636973
 31
0
  0
LINE
  8
1
 62
7
 10
79.82713017684145
 20
52.97293986636973
 30
0
 11
80.82713017684145
 21
51.97293986636973
 31
0
  0
LINE
  8
1
 62
7
 10
80.82713017684145
 20
51.97293986636973
 30
0
 11
80.82713017684145
 21
46.97293986636973
 31
0
  0
LINE
  8
1
 62
7
 10
80.82713017684145
 20
46.97293986636973
 30
0
 11
79.82713017684145
 21
46.97293986636973
 31
0
  0
LINE
  8
1
 62
7
 10
74.82713017684168
 20
48.47293986636973
 30
0
 11
76.20909618809176
 21
48.47293986636973
 31
0
  0
LINE
  8
1
 62
7
 10
74.82713017684168
 20
45.47293986636973
 30
0
 11
74.82713017684168
 21
49.47293986636973
 31
0
  0
LINE
  8
1
 62
7
 10
78.44516416559159
 20
46.47293986636973
 30
0
 11
79.82713017684168
 21
46.47293986636973
 31
0
  0
LINE
  8
1
 62
7
 10
78.44516416559159
 20
48.47293986636973
 30
0
 11
79.82713017684168
 21
48.47293986636973
 31
0
  0
LINE
  8
1
 62
7
 10
79.82713017684168
 20
49.47293986636973
 30
0
 11
79.82713017684168
 21
45.47293986636973
 31
0
  0
LINE
  8
1
 62
7
 10
92.82713017684168
 20
48.47293986636973
 30
0
 11
94.20909618809176
 21
48.47293986636973
 31
0
  0
LINE
  8
1
 62
7
 10
92.82713017684168
 20
45.47293986636973
 30
0
 11
92.82713017684168
 21
49.47293986636973
 31
0
  0
LINE
  8
1
 62
7
 10
92.82713017684168
 20
46.47293986636973
 30
0
 11
94.20909618809176
 21
46.47293986636973
 31
0
  0
LINE
  8
1
 62
7
 10
96.44516416559159
 20
46.47293986636973
 30
0
 11
97.82713017684168
 21
46.47293986636973
 31
0
  0
LINE
  8
1
 62
7
 10
97.82713017684168
 20
48.47293986636973
 30
0
 11
96.44516416559159
 21
48.47293986636973
 31
0
  0
LINE
  8
1
 62
7
 10
76.20909618809176
 20
46.47293986636973
 30
0
 11
74.82713017684168
 21
46.47293986636973
 31
0
  0
LINE
  8
1
 62
3
 10
75.4271301768417
 20
48.99743832819709
 30
0
 11
75.4271301768417
 21
45.94617452094056
 31
0
  0
LINE
  8
1
 62
3
 10
79.22713017684166
 20
45.94617452094056
 30
0
 11
79.22713017684166
 21
49.04745904634885
 31
0
  0
LINE
  8
1
 62
3
 10
93.4271301768417
 20
49.04745904634885
 30
0
 11
93.4271301768417
 21
45.94617452094056
 31
0
  0
LINE
  8
1
 62
3
 10
97.22713017684166
 20
48.99743832819709
 30
0
 11
97.22713017684166
 21
45.84613308463705
 31
0
  0
LINE
  8
1
 62
7
 10
71.32713017684168
 20
41.47293986636973
 30
0
 11
71.32713017684168
 21
33.97293986636973
 31
0
  0
LINE
  8
1
 62
7
 10
73.32713017684168
 20
33.97293986636973
 30
0
 11
71.32713017684168
 21
33.97293986636973
 31
0
  0
LINE
  8
1
 62
7
 10
99.32713017684168
 20
25.47293986636973
 30
0
 11
73.32713017684168
 21
25.47293986636973
 31
0
  0
LINE
  8
1
 62
7
 10
71.32713017684168
 20
37.47293986636967
 30
0
 11
23.32713017684168
 21
37.47293986636967
 31
0
  0
LINE
  8
1
 62
7
 10
203.3271301768417
 20
37.47293986636967
 30
0
 11
99.32713017684168
 21
37.47293986636967
 31
0
  0
LINE
  8
1
 62
7
 10
99.32713017684168
 20
25.47293986636973
 30
0
 11
99.32713017684168
 21
41.47293986636973
 31
0
  0
LINE
  8
1
 62
7
 10
73.32713017684168
 20
25.47293986636973
 30
0
 11
73.32713017684168
 21
41.47293986636973
 31
0
  0
LINE
  8
1
 62
7
 10
203.3271301768417
 20
45.47293986636967
 30
0
 11
23.32713017684168
 21
45.47293986636968
 31
0
  0
LINE
  8
1
 62
7
 10
203.3271301768417
 20
45.47293986636967
 30
0
 11
203.3271301768417
 21
37.47293986636967
 31
0
  0
CIRCLE
  8
1
 62
3
 10
-16.57960308342172
 20
36.22293986636969
 30
0
 40
1.5
  0
CIRCLE
  8
1
 62
7
 10
-16.57960308342172
 20
36.22293986636969
 30
0
 40
1.200000000000006
  0
CIRCLE
  8
1
 62
3
 10
-34.7661365628949
 20
36.22293986636971
 30
0
 40
1.500000000000006
  0
CIRCLE
  8
1
 62
7
 10
-34.7661365628949
 20
36.22293986636971
 30
0
 40
1.200000000000012
  0
CIRCLE
  8
1
 62
7
 10
-25.67286982315832
 20
51.9729398663697
 30
0
 40
1.199999999999982
  0
CIRCLE
  8
1
 62
3
 10
-25.67286982315832
 20
51.9729398663697
 30
0
 40
1.499999999999972
  0
CIRCLE
  8
1
 62
3
  6
DASHDOT
 10
-25.67286982315832
 20
41.47293986636973
 30
0
 40
10.49999999999997
  0
CIRCLE
  8
1
 62
7
 10
-25.67286982315832
 20
41.47293986636973
 30
0
 40
3.999999999999972
  0
CIRCLE
  8
1
 62
7
 10
-25.67286982315832
 20
41.47293986636973
 30
0
 40
6.5
  0
CIRCLE
  8
1
 62
7
 10
-25.67286982315832
 20
41.47293986636973
 30
0
 40
15.99999999999997
  0
CIRCLE
  8
1
 62
7
 10
-25.67286982315832
 20
41.47293986636973
 30
0
 40
7.499999999999968
  0
CIRCLE
  8
1
 62
7
 10
77.32713017684168
 20
47.47293986636973
 30
0
 40
1.500000000000014
  0
CIRCLE
  8
1
 62
7
 10
95.32713017684168
 20
47.47293986636973
 30
0
 40
1.500000000000014
  0
TEXT
  8
1
 62
7
 10
-43.00995941046558
 20
81.10000000000002
 30
0
 40
6
  1
OPL 1.5BN
 41
0.9
  7
SIMPLEX
 73
2
 11
-43.00995941046558
 21
84.10000000000002
 31
0
  0
ENDSEC
  0
EOF
