  0
SECTION
  2
HEADER
  9
$ACADVER
  1
AC1009
  9
$INSBASE
 10
0
 20
0
  9
$EXTMIN
 10
-141.3484718593602
 20
-19.50000000000003
  9
$EXTMAX
 10
103.6747601918464
 20
31.3482016695015
  9
$LIMMIN
 10
-141.3484718593602
 20
-19.50000000000003
  9
$LIMMAX
 10
103.6747601918464
 20
31.3482016695015
  9
$VIEWCTR
 10
10
 20
10
  9
$VIEWSIZE
 40
10
  9
$SNAPMODE
 70
0
  9
$SNAPUNIT
 10
1
 20
1
  9
$SNAPBASE
 10
0
 20
0
  9
$SNAPANG
 50
0
  9
$SNAPSTYLE
 70
0
  9
$SNAPISOPAIR
 70
0
  9
$GRIDMODE
 70
0
  9
$GRIDUNIT
 10
0
 20
0
  9
$ORTHOMODE
 70
0
  9
$REGENMODE
 70
1
  9
$FILLMODE
 70
1
  9
$QTEXTMODE
 70
0
  9
$DRAGMODE
 70
2
  9
$LTSCALE
 40
1
  9
$OSMODE
 70
0
  9
$ATTMODE
 70
1
  9
$TEXTSIZE
 40
3.5
  9
$TRACEWID
 40
0.5
  9
$TEXTSTYLE
  7
STANDARD
  9
$CLAYER
  8
0
  9
$CELTYPE
  6
BYLAYER
  9
$CECOLOR
 62
256
  9
$DIMSCALE
 40
1
  9
$DIMASZ
 40
0.18
  9
$DIMEXO
 40
0.0625
  9
$DIMDLI
 40
0.38
  9
$DIMRND
 40
0
  9
$DIMDLE
 40
0
  9
$DIMEXE
 40
0.18
  9
$DIMTP
 40
0
  9
$DIMTM
 40
0
  9
$DIMTXT
 40
0.18
  9
$DIMCEN
 40
0.09
  9
$DIMTSZ
 40
0
  9
$DIMTOL
 70
0
  9
$DIMLIM
 70
0
  9
$DIMTIH
 70
1
  9
$DIMTOH
 70
1
  9
$DIMSE1
 70
0
  9
$DIMSE2
 70
0
  9
$DIMTAD
 70
0
  9
$DIMZIN
 70
0
  9
$DIMBLK
  1

  9
$DIMASO
 70
1
  9
$DIMSHO
 70
1
  9
$DIMPOST
  1

  9
$DIMAPOST
  1

  9
$DIMALT
 70
0
  9
$DIMALTD
 70
2
  9
$DIMALTF
 40
25.4
  9
$DIMLFAC
 40
1
  9
$DIMTOFL
 70
0
  9
$DIMTVP
 40
0
  9
$DIMTIX
 70
0
  9
$DIMSOXD
 70
0
  9
$DIMSAH
 70
0
  9
$DIMBLK1
  1

  9
$DIMBLK2
  1

  9
$DIMSTYLE
  2
*UNNAMED
  9
$DIMCLRD
 70
0
  9
$DIMCLRE
 70
0
  9
$DIMCLRT
 70
0
  9
$DIMTFAC
 40
1
  9
$DIMGAP
 40
0.09
  9
$LUNITS
 70
2
  9
$LUPREC
 70
4
  9
$AXISMODE
 70
0
  9
$AXISUNIT
 10
0
 20
0
  9
$SKETCHINC
 40
0.1
  9
$FILLETRAD
 40
2
  9
$AUNITS
 70
0
  9
$AUPREC
 70
0
  9
$MENU
  1
ACAD
  9
$ELEVATION
 40
0
  9
$THICKNESS
 40
0
  9
$VIEWDIR
 10
0
 20
0
 30
1
  9
$LIMCHECK
 70
0
  9
$BLIPMODE
 70
1
  9
$CHAMFERA
 40
0
  9
$CHAMFERB
 40
0
  9
$FASTZOOM
 70
1
  9
$SKPOLY
 70
0
  9
$ANGBASE
 50
0
  9
$ANGDIR
 70
0
  9
$PDMODE
 70
0
  9
$PDSIZE
 40
0
  9
$PLINEWID
 40
0
  9
$COORDS
 70
2
  0
ENDSEC
  0
SECTION
  2
TABLES
  0
TABLE
  2
DIMSTYLE
 70
0
  0
ENDTAB
  0
TABLE
  2
LTYPE
 70
9
  0
LTYPE
  2
CONTINUOUS
 70
64
  3
Solid line
 72
65
 73
0
 40
0
  0
LTYPE
  2
BORDER
 70
64
  3
__ __ . __ __ .
 72
65
 73
6
 40
11.28396463393715
 49
3.223989895410613
 49
-1.611994947705307
 49
3.223989895410613
 49
-1.611994947705307
 49
0
 49
-1.611994947705307
  0
LTYPE
  2
CENTER
 70
64
  3
____ _ ____ _
 72
65
 73
4
 40
12.89595958164245
 49
8.059974738526533
 49
-1.611994947705307
 49
1.611994947705307
 49
-1.611994947705307
  0
LTYPE
  2
DASHDOT
 70
64
  3
__ . __ . __ .
 72
65
 73
4
 40
6.447979790821226
 49
3.223989895410613
 49
-1.611994947705307
 49
0
 49
-1.611994947705307
  0
LTYPE
  2
DASHED
 70
64
  3
__ __ __ __ __
 72
65
 73
2
 40
4.83598484311592
 49
3.223989895410613
 49
-1.611994947705307
  0
LTYPE
  2
DIVIDE
 70
64
  3
__ . . __ . . 
 72
65
 73
6
 40
8.059974738526533
 49
3.223989895410613
 49
-1.611994947705307
 49
0
 49
-1.611994947705307
 49
0
 49
-1.611994947705307
  0
LTYPE
  2
DOT
 70
64
  3
..............
 72
65
 73
4
 40
3.223989895410613
 49
0
 49
-1.611994947705307
 49
0
 49
-1.611994947705307
  0
LTYPE
  2
HIDDEN
 70
64
  3
_ _ _ _ _ _ _
 72
65
 73
2
 40
2.41799242155796
 49
1.611994947705307
 49
-0.8059974738526533
  0
LTYPE
  2
PHANTOM
 70
64
  3
_____ _ _ _____ _ _ 
 72
65
 73
6
 40
16.11994947705307
 49
8.059974738526533
 49
-1.611994947705307
 49
1.611994947705307
 49
-1.611994947705307
 49
1.611994947705307
 49
-1.611994947705307
  0
ENDTAB
  0
TABLE
  2
LAYER
 70
3
  0
LAYER
  2
1
 70
0
 62
7
  6
CONTINUOUS
  0
LAYER
  2
0
 70
0
 62
7
  6
CONTINUOUS
  0
ENDTAB
  0
TABLE
  2
STYLE
 70
4
  0
STYLE
  2
STANDARD
 70
0
 40
0
 41
1
 50
0
 71
0
 42
3.5
  3
txt
  4

  0
STYLE
  2
SIMPLEX
 70
0
 40
0
 41
1
 50
0
 71
0
 42
3.5
  3
simplex
  4

  0
STYLE
  2
COMPLEX
 70
0
 40
0
 41
1
 50
0
 71
0
 42
3.5
  3
complex
  4

  0
STYLE
  2
ITALIC
 70
0
 40
0
 41
1
 50
0
 71
0
 42
3.5
  3
italic
  4

  0
ENDTAB
  0
TABLE
  2
VIEW
 70
0
  0
ENDTAB
  0
ENDSEC
  0
SECTION
  2
BLOCKS
  0
ENDSEC
  0
SECTION
  2
ENTITIES
  0
LINE
  8
1
 62
7
 10
-24.22523980815366
 20
-0.1000000000000085
 30
0
 11
-22.82523980815363
 21
-1.500000000000028
 31
0
  0
LINE
  8
1
 62
7
 10
-22.82523980815363
 20
-1.500000000000028
 30
0
 11
-22.82523980815362
 21
0.7499999999999858
 31
0
  0
LINE
  8
1
 62
7
 10
-22.82523980815362
 20
0.7499999999999858
 30
0
 11
0.1747601918463708
 21
0.7499999999999716
 31
0
  0
LINE
  8
1
 62
7
 10
0.1747601918463708
 20
0.7499999999999716
 30
0
 11
0.1747601918463708
 21
-1.500000000000028
 31
0
  0
LINE
  8
1
 62
7
 10
0.1747601918463708
 20
-1.500000000000028
 30
0
 11
1.574760191846348
 21
-0.1000000000000227
 31
0
  0
LINE
  8
1
 62
7
 10
1.874760191846359
 20
-0.1000000000000227
 30
0
 11
1.874760191846359
 21
-2.000000000000028
 31
0
  0
LINE
  8
1
 62
7
 10
1.574760191846348
 20
-0.1000000000000227
 30
0
 11
1.874760191846359
 21
-0.1000000000000227
 31
0
  0
LINE
  8
1
 62
7
 10
1.874760191846359
 20
-0.8000000000000114
 30
0
 11
1.174760191846371
 21
-1.500000000000028
 31
0
  0
LINE
  8
1
 62
7
 10
1.174760191846371
 20
-1.500000000000028
 30
0
 11
1.174760191846371
 21
-2.000000000000028
 31
0
  0
LINE
  8
1
 62
7
 10
1.674760191846371
 20
-3.500000000000028
 30
0
 11
1.674760191846371
 21
-2.000000000000028
 31
0
  0
LINE
  8
1
 62
7
 10
1.674760191846371
 20
-2.000000000000028
 30
0
 11
1.174760191846371
 21
-2.000000000000028
 31
0
  0
LINE
  8
1
 62
7
 10
-24.52523980815342
 20
-0.1000000000000227
 30
0
 11
-24.22523980815366
 21
-0.1000000000000085
 31
0
  0
LINE
  8
1
 62
7
 10
-24.52523980815342
 20
-0.1000000000000227
 30
0
 11
-24.52523980815362
 21
-2.000000000000028
 31
0
  0
LINE
  8
1
 62
7
 10
-23.8252398081536
 20
-1.500000000000028
 30
0
 11
-24.52523980815361
 21
-0.7999999999999972
 31
0
  0
LINE
  8
1
 62
7
 10
-23.8252398081536
 20
-2.000000000000028
 30
0
 11
-24.3252398081536
 21
-2.000000000000028
 31
0
  0
LINE
  8
1
 62
7
 10
-23.8252398081536
 20
-2.000000000000028
 30
0
 11
-23.8252398081536
 21
-1.500000000000028
 31
0
  0
LINE
  8
1
 62
7
 10
-24.3252398081536
 20
-2.000000000000028
 30
0
 11
-24.3252398081536
 21
-3.500000000000028
 31
0
  0
LINE
  8
1
 62
7
 10
-21.82523980815362
 20
-3.500000000000014
 30
0
 11
-21.82523980815363
 21
-2.500000000000028
 31
0
  0
LINE
  8
1
 62
7
 10
-0.8252398081536576
 20
-2.500000000000028
 30
0
 11
-0.8252398081536292
 21
-3.500000000000028
 31
0
  0
LINE
  8
1
 62
7
 10
-1.825239808153629
 20
0.7499999999999716
 30
0
 11
-1.825239808153629
 21
-2.500000000000028
 31
0
  0
LINE
  8
1
 62
7
 10
-21.82523980815363
 20
-2.500000000000028
 30
0
 11
-0.8252398081536576
 21
-2.500000000000028
 31
0
  0
LINE
  8
1
 62
7
 10
-20.82523980815362
 20
0.7499999999999858
 30
0
 11
-20.82523980815363
 21
-2.500000000000028
 31
0
  0
LINE
  8
1
 62
7
 10
-15.82523980815362
 20
0.7499999999999858
 30
0
 11
-15.82523980815363
 21
-2.500000000000028
 31
0
  0
LINE
  8
1
 62
7
 10
-8.82523980815362
 20
0.7499999999999858
 30
0
 11
-8.825239808153629
 21
-2.500000000000028
 31
0
  0
LINE
  8
1
 62
7
 10
-6.825239808153629
 20
0.7499999999999716
 30
0
 11
-6.825239808153629
 21
-2.500000000000028
 31
0
  0
LINE
  8
1
 62
7
 10
-13.82523980815362
 20
0.7499999999999858
 30
0
 11
-13.82523980815363
 21
-2.500000000000028
 31
0
  0
LINE
  8
1
 62
7
 10
5.674760191846399
 20
2.499999999999943
 30
0
 11
-28.3252398081536
 21
2.499999999999943
 31
0
  0
LINE
  8
1
 62
7
 10
5.674760191846399
 20
-7.500000000000028
 30
0
 11
5.674760191846399
 21
-17.50000000000003
 31
0
  0
LINE
  8
1
 62
7
 10
3.174760191846399
 20
-7.500000000000028
 30
0
 11
3.174760191846399
 21
-8.500000000000028
 31
0
  0
LINE
  8
1
 62
7
 10
3.174760191846399
 20
-8.500000000000028
 30
0
 11
4.674760191846399
 21
-8.500000000000028
 31
0
  0
LINE
  8
1
 62
7
 10
-27.3252398081536
 20
-8.500000000000028
 30
0
 11
-25.8252398081536
 21
-8.500000000000028
 31
0
  0
LINE
  8
1
 62
7
 10
-25.8252398081536
 20
-8.500000000000028
 30
0
 11
-25.82523980815359
 21
-7.500000000000014
 31
0
  0
LINE
  8
1
 62
7
 10
-30.8252398081536
 20
-11.50000000000003
 30
0
 11
-30.8252398081536
 21
-15.00000000000003
 31
0
  0
LINE
  8
1
 62
7
 10
-30.8252398081536
 20
-15.00000000000003
 30
0
 11
-28.3252398081536
 21
-15.00000000000003
 31
0
  0
LINE
  8
1
 62
7
 10
8.174760191846399
 20
-11.50000000000003
 30
0
 11
8.174760191846399
 21
-15.00000000000003
 31
0
  0
LINE
  8
1
 62
7
 10
8.174760191846399
 20
-15.00000000000003
 30
0
 11
5.674760191846399
 21
-15.00000000000003
 31
0
  0
LINE
  8
1
 62
7
 10
-27.3252398081536
 20
-8.500000000000028
 30
0
 11
-27.3252398081536
 21
-17.50000000000003
 31
0
  0
LINE
  8
1
 62
7
 10
-23.67164996966735
 20
1.499999999999972
 30
0
 11
1.021170353360144
 21
1.499999999999972
 31
0
  0
LINE
  8
1
 62
7
 10
-25.3252398081536
 20
1.499999999999972
 30
0
 11
-27.3252398081536
 21
1.499999999999972
 31
0
  0
LINE
  8
1
 62
7
 10
-28.32523980815359
 20
-1.4210854715202e-014
 30
0
 11
-28.3252398081536
 21
2.499999999999943
 31
0
  0
LINE
  8
1
 62
7
 10
-30.82523980815359
 20
-1.4210854715202e-014
 30
0
 11
-30.8252398081536
 21
-3.500000000000028
 31
0
  0
LINE
  8
1
 62
7
 10
-28.32523980815359
 20
-1.4210854715202e-014
 30
0
 11
-30.82523980815359
 21
-1.4210854715202e-014
 31
0
  0
LINE
  8
1
 62
7
 10
-23.32523980815359
 20
1.299999999999997
 30
0
 11
-23.3252398081536
 21
0.7499999999999716
 31
0
  0
LINE
  8
1
 62
7
 10
-24.42523980815362
 20
-2.000000000000014
 30
0
 11
-24.42523980815362
 21
-3.500000000000028
 31
0
  0
LINE
  8
1
 62
7
 10
-25.32523980815359
 20
-0.2500000000000142
 30
0
 11
-25.3252398081536
 21
-2.000000000000028
 31
0
  0
LINE
  8
1
 62
7
 10
-26.19126521193801
 20
0.2499999999999858
 30
0
 11
-25.32523980815359
 21
-0.2500000000000142
 31
0
  0
LINE
  8
1
 62
7
 10
-27.3252398081536
 20
0.2499999999999716
 30
0
 11
-26.19126521193801
 21
0.2499999999999858
 31
0
  0
LINE
  8
1
 62
7
 10
-27.32523980815359
 20
0.7499999999999858
 30
0
 11
-27.3252398081536
 21
0.2499999999999716
 31
0
  0
LINE
  8
1
 62
7
 10
-23.3252398081536
 20
0.7499999999999716
 30
0
 11
-27.32523980815359
 21
0.7499999999999858
 31
0
  0
LINE
  8
1
 62
7
 10
-24.88408553496551
 20
2.19999999999996
 30
0
 11
-23.32523980815359
 21
1.299999999999997
 31
0
  0
LINE
  8
1
 62
7
 10
-25.3252398081536
 20
2.19999999999996
 30
0
 11
-24.88408553496551
 21
2.19999999999996
 31
0
  0
LINE
  8
1
 62
7
 10
-24.42523980815362
 20
-2.000000000000014
 30
0
 11
-25.3252398081536
 21
-2.000000000000028
 31
0
  0
LINE
  8
1
 62
7
 10
-25.3252398081536
 20
1.499999999999972
 30
0
 11
-25.3252398081536
 21
2.499999999999972
 31
0
  0
LINE
  8
1
 62
7
 10
-27.3252398081536
 20
2.499999999999972
 30
0
 11
-27.3252398081536
 21
1.499999999999972
 31
0
  0
LINE
  8
1
 62
7
 10
4.674760191846399
 20
1.499999999999972
 30
0
 11
4.674760191846399
 21
2.499999999999972
 31
0
  0
LINE
  8
1
 62
7
 10
2.674760191846399
 20
1.499999999999972
 30
0
 11
2.674760191846399
 21
2.499999999999972
 31
0
  0
LINE
  8
1
 62
7
 10
2.674760191846399
 20
-2.000000000000028
 30
0
 11
1.774760191846536
 21
-2.000000000000028
 31
0
  0
LINE
  8
1
 62
7
 10
2.233605918658309
 20
2.19999999999996
 30
0
 11
2.674760191846399
 21
2.19999999999996
 31
0
  0
LINE
  8
1
 62
7
 10
0.6747601918463992
 20
1.299999999999983
 30
0
 11
2.233605918658309
 21
2.19999999999996
 31
0
  0
LINE
  8
1
 62
7
 10
4.674760191846399
 20
0.7499999999999716
 30
0
 11
0.6747601918463992
 21
0.7499999999999716
 31
0
  0
LINE
  8
1
 62
7
 10
4.674760191846399
 20
0.2499999999999716
 30
0
 11
4.674760191846399
 21
0.7499999999999716
 31
0
  0
LINE
  8
1
 62
7
 10
3.540785595630819
 20
0.2499999999999716
 30
0
 11
4.674760191846399
 21
0.2499999999999716
 31
0
  0
LINE
  8
1
 62
7
 10
2.674760191846399
 20
-0.2500000000000284
 30
0
 11
3.540785595630819
 21
0.2499999999999716
 31
0
  0
LINE
  8
1
 62
7
 10
2.674760191846399
 20
-2.000000000000028
 30
0
 11
2.674760191846399
 21
-0.2500000000000284
 31
0
  0
LINE
  8
1
 62
7
 10
1.774760191846422
 20
-3.500000000000028
 30
0
 11
1.774760191846536
 21
-2.000000000000028
 31
0
  0
LINE
  8
1
 62
7
 10
8.174760191846399
 20
-2.842170943040401e-014
 30
0
 11
5.674760191846399
 21
-2.842170943040401e-014
 31
0
  0
LINE
  8
1
 62
7
 10
8.174760191846399
 20
-3.500000000000028
 30
0
 11
8.174760191846399
 21
-2.842170943040401e-014
 31
0
  0
LINE
  8
1
 62
7
 10
5.674760191846399
 20
2.499999999999943
 30
0
 11
5.674760191846399
 21
-2.842170943040401e-014
 31
0
  0
LINE
  8
1
 62
7
 10
4.674760191846399
 20
1.499999999999972
 30
0
 11
2.674760191846399
 21
1.499999999999972
 31
0
  0
LINE
  8
1
 62
7
 10
0.6747601918463992
 20
0.7499999999999716
 30
0
 11
0.6747601918463992
 21
1.299999999999983
 31
0
  0
LINE
  8
1
 62
7
 10
0.9247601918463992
 20
2.499999999999972
 30
0
 11
0.9247601918463992
 21
1.499999999999972
 31
0
  0
LINE
  8
1
 62
7
 10
-23.5752398081536
 20
2.499999999999972
 30
0
 11
-23.5752398081536
 21
1.499999999999972
 31
0
  0
LINE
  8
1
 62
7
 10
4.674760191846399
 20
-17.50000000000003
 30
0
 11
4.674760191846399
 21
-8.500000000000028
 31
0
  0
LINE
  8
1
 62
7
 10
5.674760191846399
 20
-17.50000000000003
 30
0
 11
-28.3252398081536
 21
-17.50000000000003
 31
0
  0
LINE
  8
1
 62
7
 10
-28.3252398081536
 20
-17.50000000000003
 30
0
 11
-28.3252398081536
 21
-7.500000000000028
 31
0
  0
LINE
  8
1
 62
7
 10
-28.3252398081536
 20
-11.50000000000003
 30
0
 11
-78.3252398081536
 21
-11.50000000000001
 31
0
  0
LINE
  8
1
 62
7
 10
101.6747601918464
 20
-11.50000000000001
 30
0
 11
5.674760191846398
 21
-11.50000000000003
 31
0
  0
LINE
  8
1
 62
7
 10
-78.3252398081536
 20
-3.500000000000028
 30
0
 11
101.6747601918464
 21
-3.500000000000014
 31
0
  0
LINE
  8
1
 62
3
  6
DASHDOT
 10
-80.3252398081536
 20
-7.500000000000014
 30
0
 11
103.6747601918464
 21
-7.500000000000028
 31
0
  0
LINE
  8
1
 62
7
 10
-78.3252398081536
 20
-3.500000000000028
 30
0
 11
-78.3252398081536
 21
-11.50000000000001
 31
0
  0
LINE
  8
1
 62
7
 10
101.6747601918464
 20
-11.50000000000001
 30
0
 11
101.6747601918464
 21
-3.500000000000014
 31
0
  0
LINE
  8
1
 62
3
  6
DASHDOT
 10
-121.6958567603354
 20
4.499999999999972
 30
0
 11
-121.6958567603354
 21
-19.50000000000003
 31
0
  0
LINE
  8
1
 62
3
  6
DASHDOT
 10
-133.6958567603354
 20
-7.500000000000028
 30
0
 11
-109.6958567603354
 21
-7.500000000000014
 31
0
  0
LINE
  8
1
 62
7
 10
-122.8958567603354
 20
-0.0966223924482108
 30
0
 11
-122.8958567603354
 21
-3.68424319433224
 31
0
  0
LINE
  8
1
 62
7
 10
-120.4958567603354
 20
-0.0966223924482108
 30
0
 11
-120.4958567603354
 21
-3.68424319433224
 31
0
  0
LINE
  8
1
 62
7
 10
-122.8958567603354
 20
-11.3157568056678
 30
0
 11
-122.8958567603354
 21
-14.90337760755185
 31
0
  0
LINE
  8
1
 62
7
 10
-120.4958567603354
 20
-11.3157568056678
 30
0
 11
-120.4958567603354
 21
-14.90337760755185
 31
0
  0
LINE
  8
1
 62
7
 10
-20.82523980815363
 20
-7.500000000000019
 30
0
 11
-20.82523980815363
 21
-3.500000000000024
 31
0
  0
LINE
  8
1
 62
7
 10
-15.82523980815363
 20
-7.50000000000002
 30
0
 11
-15.82523980815363
 21
-3.500000000000028
 31
0
  0
LINE
  8
1
 62
3
 10
-20.82523980815363
 20
-3.88720142199325
 30
0
 11
-15.82523980815363
 21
-3.88720142199325
 31
0
  0
LINE
  8
1
 62
3
 10
-15.82523980815363
 20
-4.88498564170081
 30
0
 11
-20.82523980815363
 21
-4.88498564170081
 31
0
  0
LINE
  8
1
 62
3
 10
-20.82523980815363
 20
-5.89968145835257
 30
0
 11
-15.82523980815363
 21
-5.89968145835257
 31
0
  0
LINE
  8
1
 62
3
 10
-15.82523980815363
 20
-6.89746567806014
 30
0
 11
-20.82523980815363
 21
-6.89746567806014
 31
0
  0
ARC
  8
1
 62
7
 10
-121.6958567603354
 20
-7.500000000000028
 30
0
 40
5.499999999999986
 50
282.6022648414651
 51
77.39773515853489
  0
ARC
  8
1
 62
7
 10
-121.6958567603354
 20
-7.500000000000028
 30
0
 40
5.499999999999984
 50
102.6022648414651
 51
257.3977351585348
  0
CIRCLE
  8
1
 62
7
 10
-121.6958567603354
 20
-7.500000000000028
 30
0
 40
10
  0
CIRCLE
  8
1
 62
7
 10
-121.6958567603354
 20
-7.500000000000028
 30
0
 40
7.5
  0
CIRCLE
  8
1
 62
7
 10
-121.6958567603354
 20
-7.500000000000028
 30
0
 40
4
  0
TEXT
  8
1
 62
7
 10
-143.4274718593602
 20
27.3482016695015
 30
0
 40
4
  1
OPL 1.8N
 41
0.891
  7
SIMPLEX
 72
1
 11
-129.1714718593602
 21
27.3482016695015
 31
0
  0
ENDSEC
  0
EOF
